Gitarizm

Гитаризм

Конкурс на лучший кавер
Здесь могла бы быть Ваша реклама!
Хотите узнать как играть на гитаре? Гитаризм — лучший самоучитель гитары для начинающих!

I Am The Avalanche - A New Disaster (табулатура)


===================================
I Am The Avalanche - A New Disaster
===================================

Standard Tuning

Guitar 1:
e|---------------------------------------------------|
B|---------------------------------------------------|
G|--11-11-11-11--------------------------------------|
D|--11-11-11-11-11-11-11-11-12-12-12-12-14-14-14-14--|
A|--9--9--9--9--11-11-11-11-12-12-12-12-14-14-14-14--|
E|--------------9--9--9--9--10-10-10-10-12-12-12-12--|X4

3rd time guitar 2 comes in
Guitar 2:
e|---------------------------------------------------|
B|---------------------------------------------------|
G|--4-4-4-4------------------------------------------|
D|--4-4-4-4-4-4-4-4-5-5-5-5-7-7-7-7------------------|
A|--2-2-2-2-4-4-4-4-5-5-5-5-7-7-7-7------------------|
E|----------2-2-2-2-3-3-3-3-5-5-5-5------------------|X2

Verse:
Guitar 2:
e|-------------------------------------------------------|
B|-------------------------------------------------------|
G|-------------------------------------------------------|
D|-44-x4-44-4-x--------------44-x4-44-4-x----------------|
A|-22-x2-22-2-x-55-x5-55-5-x-22-x2-22-2-x--77-x7-77-7-x--|
E|--------------33-x3-33-3-x---------------55-x5-55-5-x--|X1

then
Guitar 2:
e|------------------------------------------------------|
B|------------------------------------------------------|
G|-44-x4-44-4-x--------------44-x4-44-4-x---------------|
D|-44-x4-44-4-x-55-x5-55-5-x-44-x4-44-4-x-77-x7-77-7-x--|
A|-22-x2-22-2-x-55-x5-55-5-x-22-x2-22-2-x-77-x7-77-7-x--|
E|--------------33-x3-33-3-x--------------55-x5-55-5-x--| X1

I couldn't find the tab of this song anywhere so I tabbed the damned thing myself.
I haven't figured out the chorus yet, but I'll get there soon.
Anyway, enjoy - Miles
Автор: muzzon