Gitarizm

Гитаризм

Конкурс на лучший кавер
Смотрите информацию http://nanokrov.ru/ у нас на сайте. Здесь могла бы быть Ваша реклама!
Хотите узнать как играть на гитаре? Гитаризм — лучший самоучитель гитары для начинающих!

Схемы переборов


По просьбе посетителей сайта проведу небольшой обзор по гитарным переборам. Данный урок рассчитан на гитаристов, более-менее освоивших гитару.

Что такое перебор?

Слово говорит само за себя – это перебирание струн правой рукой (для правшей) в определенной последовательности. Некая альтернатива бою. Сходство с боем только одно: у перебора тоже есть стандартные схемы.

Исполнение перебора может осуществляться как медиатром, так и пальцами правой руки.

Приведу пример самого простого перебора:
С
E |-------0-----|-------0-----|
B |-----1---1---|-----1---1---|
G |---0-------0-|---0-------0-|
D |-------------|-2-----------|
A |-3-----------|-------------|
E |-------------|-------------|

Думаю, играя медиатром, здесь никто не запутается.

Как играть это пальцами?

Обычно в переборе за 4-ю, 5-ю и 6-ю струну отвечает большой палец, но не обязательно! За 3-ю струну отвечает указательный, за 2-ю – средний и за 1-ю – безымянный (опять же это просто стандартная схема).

Рисунок простейшего перебора, как видно, на первых трех струнах повторяется. От такта к такту меняется лишь исполнение бас-струны. Весь перебор занимает два такта. Затем он повторяется. Если сам аккорд длится не дольше такта, то тогда целесообразней играть всего один такт от этого перебора.

Вот так:
С Am
E |-------0-----|-------0-----|
B |-----1---1---|-----1---1---|
G |---0-------0-|---2-------2-|
D |-------------|-------------|
A |-3-----------|-0-----------|
E |-------------|-------------|


А вообще, для каждого аккорда, независимо от схемы перебора, в качестве баса используют определенную струну (зависит от играемой мелодии). Например, для аккорда D не используют 6-ю струну только потому, что это будет некрасиво звучать. Обычно используют 4-ю.

По технике: играя пальцами, ваша рука не должна скакать. Двигаются только пальцы. Руку можно разместить на бридже, или положить ее на шестую струну, если она не используется. Будут возникать трудности, обращайтесь в форум или оставляйте здесь комментарии.

Ну и осталось представить вам несколько других стандартных схем переборов:
С
E |---------0-------|---------0-------|
B |-----1-------1---|-----1-------1---|
G |---0---0---0---0-|---0---0---0---0-|
D |-----------------|-2---------------|
A |-3---------------|-----------------|
E |-----------------|-----------------|


С
E |---0-----|---0-----|
B |-----1---|-----1---|
G |-------0-|-------0-|
D |---------|-2-------|
A |-3-------|---------|
E |---------|---------|


С
E |---------0-------|
B |-------1---1-----|
G |-----0-------0---|
D |---2-----------2-|
A |-3---------------|
E |-----------------|



О предыдущей схеме чуть по-подробнее…

Здесь мы немного отошли от стандарта. Четвертая струна играется указательным пальцем. 3-я – средним, 2-я – безымянным, а 1-я – мизинцем. Вот здесь-то и могут возникнуть трудности у большинства гитаристов. Обычно мизинцем мало кто играет. Но вы главное не сдавайтесь! Больше тренировок, и все получится!


Игру перебором, для начала, можно попробовать на этой песне:


Ария - Беспечный ангел

E||----------------------|--------------------------|
B||----------------------|--------------0-----------|
G||----------------------|-----------0-----0--------|
D||-------------------0--|--------2-----------2-----|
A||-------------0--2-----|-----2-----------------2--|
E||----------3-----------|--0-----------------------|




--------------------------|--------------------------|
-----------1--------------|-----------3--------------|
--------0--------0-----0--|--------0--------0-----0--|
-----2--------2-----2-----|-----0--------0-----0-----|
--3-----------------------|--------------------------|
--------------------------|--3-----------------------|




--------------------------|--------------------------|
-----------3--------------|--------------0-----------|
--------0-----------------|-----------0-----0--------|
-----0-----------------0--|--------2-----------2-----|
-----------------0--2-----|-----2-----------------2--|
--3-----------3-----------|--0-----------------------|




--------------------------|--------------3-----------|
-----------1--------------|-----------3-----3--------|
--------0--------0-----0--|--------0-----------0-----|
-----2--------2-----2-----|-----0-----------------2--|
--3-----------------------|--------------------------|
--------------------------|--3-----------------------|




-------------------||
-------------------||
-------------------||
-------------------||
-------------------||
--3----------------||


Здесь скомбинированы несколько видов перебора. Обычно, так и делают: совмещают несколько схем в одну. Играть песню одним замусоленным перебором – это некрасиво и нудно. Чем больше разнообразия – тем лучше! Главное сами не запутайтесь:)

Автор: admin