Gitarizm

Гитаризм

Конкурс на лучший кавер
Здесь могла бы быть Ваша реклама!
Хотите узнать как играть на гитаре? Гитаризм — лучший самоучитель гитары для начинающих!
Am E7
Когда уйдем со школьного двора,
Am
Под звуки не стареющего вальса.
A7 Dm
Учитель нас проводит до угла
Am E7 Am
И вновь назад, и вновь ему с утра:
Dm Am E7 Am
Встречай, учи и снова расставайс
Am Dm
Тёплый дождь забарабанил по стеклу
G C
Настала осень и навела на нас тоску
Am Dm
Пошли все в школу с надеждой встретить там любовь
G C
Но грустно ста
Вступление:
e|-----3-2-0--------------------------------|
B|-----0-0-----3-1-0---3-1-0----------------|
G|---0-------0-------0--------0---2--0------|
D|------------------------------------------|
A|---------3---------------2----------------|
------1-----3-1---3--|------0-3-3-1-0-5--
----2----------------|----1--------------

--0---0-1-0-----0----|----3-1-0----------
----4-------1-----3--|--0-------0-3-1----
--------------2------|----------------2--
Am Dm E
Шаланды полные кефали
Am A7
В Одессy Kостя пpиво