Gitarizm

Гитаризм

Конкурс на лучший кавер
Здесь могла бы быть Ваша реклама!
Хотите узнать как играть на гитаре? Гитаризм — лучший самоучитель гитары для начинающих!
B||-----------------------|------------------------|------------------------|
G||-----------------------|------------------------|------------------------|
D||-----------------------|------------------------|------------------------|
A||--------------3--3--3--|--3------------3--3--3--|--3------------3--3--3--|
E||-----------
Мы получим диплом, гоп-стоп дуба, махнем в деревню.
Dm E Am A7
Соберем чуваков гоп-стоп дуба, распашем землю.
Dm G C Am
Мы будем сеять хлеб, овес, ломая плуги, ла-ла-ла,
Dm E Am
Мы получим диплом, гоп-стоп дуба, махнем в
Am
деревню.

Dm E Am
Соберем чуваков гоп-стоп дуба, распашем землю.

A7 G С Am
Мы будем сеять канаплю ломая плуги, /
ла-ла-ла,
А F#7
Десять школьных лет осталось, позади какая жалость
Вm А Е
Но так уж суждено, м-м.
А F#7
И уж если откровенно, нас пугают перемены,
Bm, А Е
Но главное одно, м-м,

Bm Е7 С
Да! Мы вып
/I am The God That Healeth Thee/ Don Moen
C Em
1. Мы поклоняемся Тебе наш Бог
Dm G C
Живой и Всемогущий
Am Dm
Всем доказал в Христе Свою любовь
G C F G
Am E Am
Прибыла в Одессу банда из Амура
F E
В банде были урки, шулера.
Am A7 Dm
Банда занималась темными делами,
E Am
И за ней следила ГубЧеКа

Речь держала баба. Звали ее Мурка.
Хитрая и смелая
МЫ УХОДИМ

музыка A.Халилова слова И.Морозова

Cm
С покоренных однажды небесных вершин
Fm
По ступеням обугленным на землю сходим,
G7
Под прицельные залпы наветов и лжи

, уходим, уходим, уходим.

Fm
Прощайте,
"МЫ ВСТРЕЧAЕМ СAМОЛЕТЫ"
Музыка и слова ю. Слатова

Am Dm E7 Am
, взгляд на небо обращая.
Dm Am E7 Am
Все они в зеленом цвете, только мы их различаем.
A7 Dm G7 C
Самолет частичка дома, даж
----------------------------------------------------------------------------
--------------------------------------------------1-0-----------------------
-----------------------------2-2-1-2-4--2-1-2-4--------2-1-4-2---2-0----0---
-2-2-1-2-3-2---0-----------------------------------------------------3-2--3-
-----------------3
Куплет:

e|------------------3-2-0-0----------------------------------------------|
B|0-0-0-0-0-0-0-0-0-0-----------------------------3-3-3-3-3-3-3-3-3|
G|------0-----------0-----------0-----------0-----------4-----2---------|
D|------2---------------------2---2-------2---2---------5-----4---------|
A|------2----