Gitarizm

Гитаризм

Конкурс на лучший кавер
Здесь могла бы быть Ваша реклама!
Хотите узнать как играть на гитаре? Гитаризм — лучший самоучитель гитары для начинающих!
По пустыне сухой, по зыбучим пескам.
E Am
Тихо шел караван, из Тувы в Абакан.

А когда в Абакан прибыл тот караван,
Накурились мы там, и пошли по домам.

Наркоманы сидят накуриться хотят
Самый главный ...(здесь можно подставить имя друга)
Караван

Am Am (Бой) ^ - вниз v -вверх
1---------------------------0--0--0--0--0--0------------
2---------------------------1--1--1--1--1--1------------
3------------2--2--0-0------2--2--2--2--2--2------------
4-----2--2------------------2--2--2--2--2--2------------
5-----------
играть ритмом: V V ^ ^ V ^ V (x - щелчок, V - вниз, ^ - вверх)
х х
Аккорды играть ритмом (1 такт, как нарисованно)
Текст идёт по рифу, когда играется аккорд текста нет.........
Ну тут всё и так ясно......

Am Dm Am E
B-----0-----------1-----------5-------3---------3-----0-------0---|
G---0---0-------------2-----5---5---5---5-----------0---0---2---2-|
D---------2---------2---2---------0-------4-----------------------|
A-----------------0---------------------------------------2-------|
E-0-----------------------------------------------3---
|---3---5---1--------------3---5-----|-------1---5-------5-----------3-|
|--------------2-----2-------------2-|---2-----------------------------|
|------------------------------0-----|---------------3---------------0-|
|--------------0---------------------|-------------------3-------------|
|---------------------------------
------------1-3------------3--3-3--3-1--1---3-1-0--0-0-1-3------------3--3-----3-1--1----
-3-1-0--0-3-1-0--------------------------------------------------------------------------
--------------------------2-----------------------0--------------------------------------
----0---------------------------------------------0-----------