Gitarizm

» Каталог » Аккорды для песни к

Гитаризм

Конкурс на лучший кавер
Здесь могла бы быть Ваша реклама!
Хотите узнать как играть на гитаре? Гитаризм — лучший самоучитель гитары для начинающих!
B-----0-----------1-----------5-------3---------3-----0-------0---|
G---0---0-------------2-----5---5---5---5-----------0---0---2---2-|
D---------2---------2---2---------0-------4-----------------------|
A-----------------0---------------------------------------2-------|
E-0-----------------------------------------------3---
|---3---5---1--------------3---5-----|-------1---5-------5-----------3-|
|--------------2-----2-------------2-|---2-----------------------------|
|------------------------------0-----|---------------3---------------0-|
|--------------0---------------------|-------------------3-------------|
|---------------------------------
------------1-3------------3--3-3--3-1--1---3-1-0--0-0-1-3------------3--3-----3-1--1----
-3-1-0--0-3-1-0--------------------------------------------------------------------------
--------------------------2-----------------------0--------------------------------------
----0---------------------------------------------0-----------