Gitarizm

» Каталог » Аккорды для песни к

Гитаризм

Конкурс на лучший кавер
Здесь могла бы быть Ваша реклама!
Хотите узнать как играть на гитаре? Гитаризм — лучший самоучитель гитары для начинающих!
Am
Трудно идти в одиночку,
Dm
Легко в строю.
Am
Снова дождик за окошком,
F
Осталось нам совсем немн
Вступление:
E---------0--------|------------0---|-------------0---|------------0--|
B------0----0---0-|--------3----3-|-----------3---3-|---------0----0--|
G----0---------0--|------0---------|--------0--------|-------0--------|
D--2---------------|----0-----------|----4-
Em H7
Тебя привезли тёплым март
Em C
На снегу разлит сладкий мед и я
Аккорд G (1) - такой же как и обычный G, но зажимаем ещё 2 струну на 3 ладу:
1.)----3------
2.)----3------
3.)-----------
4.)-----------
5.)--2--------
Am
Песен еще ненаписанных, сколько?
G Dm Am
E|------7-5-----3----------5--------7-5------3--------5--------
H|----------5-----5----------7----------5------5--------7-----
G|-4-5--------5------5-7-------5-4---------5-----4--5------5-4