Gitarizm

» Каталог » Аккорды для песни к

Гитаризм

Конкурс на лучший кавер
Здесь могла бы быть Ваша реклама!
Хотите узнать как играть на гитаре? Гитаризм — лучший самоучитель гитары для начинающих!
G# C Fm Все в жизни ладилось моей C И было все, что сердце хочет C Но снилась пара лебедей C Мне каждой ночью, каждой ночью Fm Они летали над земл
Hm Em Ты меня обидела, F#7 Hm Мое сердце ранила, Hm Em Розу белую мою A D F#7 На снегу оставила, Hm Em А сердце плачит и грустит, F#7 Hm Злая вьюга надо мной
E Am Dm Да, я не прав и за это ты меня прости. Dm Я с горяча, но не со зла тебя обидел. E Тебя обидел. Am Давай забудем, давай забудем. E Все обиды. Dm В
Fm G7 Fm Cm Fm В глазах твоих рассвета нет Cm Лишь долгая-долгая ночь. Fm Ты - сам себе палач, ты - сам себе судья, G А госпожа твоя- острая игла. G7 Заш
Am Відкриваєш очі C Виходиш за двері G І як завжди скорбота Am В твоїй душі Am Ти не слухався ночі C Ти не бачив вечері G Не пішов на роботу Dm Зви
-----------3--------3---------3-------3-------------- -------------0--------0---------0-------0------------ ---------0--------0---------0-------0---------------- ---0---2--------0------------------------------------ -3------------------------3-------
Dm Мне два века жить не дано Gm Один раз прожить суждено A7 Один раз любить навсегда Dm Любовь хранить сквозь года Dm Ты береги свою любовь A7 Не
Проигрыш: A A7 C A F Когда-то ты меня любила Dm И рядом ты всегда была со мной. Dm И каждую каждую минутку D7 Мне говорила нежные слова. Dm И каждую
Am... C Am Dm Am Dm Перед тобой моя вина, Am Перед тобой я виноват, Dm Что больную и седую, A7 Тебя одну оставил я. Am За все твои годы, за все твои слезы A
Am Dm E Am
А ветер рвет листья и гонит куда-то,
Am Dm G
Am
Пришел приказ, подняли нас,
E
И в
Am Dm E Am
Ранним солнечным утречком провожала она
A7 Dm
Проигрыш 1:
E|------------------------------------------------|
H|------------------------------------------------|
G|-------5-----------4----------------------------|
D|----5-----5-----4-----4--------2--4--5--4--2--0-|
A|-3-----------2--------------2---------------
Dm G C Am
Когда зимой холодною в крещенские морозы,
Дерутся насмерть пацаны, а девушки роняют слезы.
Когда при драке в ход идут ножи з
4|-----2-2-0-|
5|-2-2-------| Em

4|-----2-2-0-|
5|-2-2-------| Am