Gitarizm

Гитаризм

Конкурс на лучший кавер
Здесь могла бы быть Ваша реклама!
Хотите узнать как играть на гитаре? Гитаризм — лучший самоучитель гитары для начинающих!
C#m G#m
Как же Джокер ты хитёр.
A
Am
В ресторане мрачно я напился, как говнюк,
Dm
Вступление:

Cm# | A |
Intro

1----------------------------------------------------------
2----------------------------------------------------------
3----------------------------------------------------------
4-5--5~8-8~10-3--3-8--8------------------------------------
5-3--3~6-6~8--
Торба-на-Круче - Друг

C H7
Вступление:
E||--------------------------||
B||--------------------------||
G||--4--7--4-----------------||
D||--4--7--4--3--2--2--4--2--||
A||--2--5--2--3--2--2--4--2--||
E||-----------3--2--2--4--2--||

Куплет:
E||--------------||
Hm
Появилась ты в жизни моей,
D
когда я т