Gitarizm

Гитаризм

Конкурс на лучший кавер
Здесь могла бы быть Ваша реклама!
Хотите узнать как играть на гитаре? Гитаризм — лучший самоучитель гитары для начинающих!
Гул мотора оборвал ночной покой
G C
По дороге мчится рокер молодой
F Dm
Черной краской его окрашен гермошлем
E Am
И этот парень известен был везде и всем

И каждый вечер он к подъезду подъезжал
И у клена свою девушку он ждал
И катали
Дикие мечты, древняя любовь
И для нас с тобой мир родится вновь.
Лунный свет в окне напророчил смерть
Повстречался мне ни зверь ни человек!

Припев:
Грешная любовь только для меня,
Без неё теперь не прожить ни дня,
С призраком ночным закончить свои дни,
Об одном прошу Господи прости.
кто-нибудь знает эту песню, напишите мне на емайл.

Am Dm
На груди своей, на груди своей тихо руки прячешь
Am
О судьбе своей, о судьбе своей ты тихонько плачешь,
F C
Но не надо слё
Ах не шумите ради бога тише
A Dm
Голуби целуются на крыше
Dm G C Am
Вот она сама любовь ликует
Dm E7 Am A7
Голубок с голубкою воркует

Я сегодня замер как дикарь
Пред твоими чудными глазами
Волосы твои я нежно глажу
С непокорными н
На прокуренном вокзале
Dm
Мы с тобой стояли
E E7 Am Dm Em
И кричали поезда
Только мы с тобой молчали
Ничего не замечали
Расставаясь навсегда
Дни сливалися в недели
Птицы к югу улетели
Юность тает дымкой голубой
Звезды с неба облетели
Мы собрать их не сумели
студентами кафедры ИСБ(Информационные Системы в Бизнесе)Ухтинского Государственного
Технического Университета в 1999 г.
Эта весёлая мелодия, вот уже пятый год, служит прекрасным гимном для НАС -
студентов факультета информационных технологий!!!
Em D Em
На ухтинской стороне, нефтяной плане
C C7
Господь Иисус есть наш Бог
F/C Fm
Он любви и хвалы достоин
C Am
И Он силён повести Свой народ
Dm G
К цели вечной и святой

C7 F
D G D A
Глубока, подобно морю совершенная Любовь
D G D A D
Как поток, поящий горы, жизнь даёт Христова Кровь.
D Em A D
Царь вселе
1 куплет:
C Em F C
Россия - священная наша держава!
Dm G
Россия - любимая наша страна!
C G Am Em
Могучая воля, великая слава -
F C D G
e---------------------------------------------------1-3-0-------------|
B----1----------------------------------------0-2-4-------------------|
G--0-----0--2-4-----2--0---0--------------2-3-3-----------------------|
D---------------22-------3------------0-0-----------------------------|
A-------------------------------3-3---
]-------------------9-----------------------[
]-------5-7-7-8-7-8---7-5-5-5---------------[ - И так сколько угодно раз.
]-5-7-8-----------------------8-8-7-5-7-8-5-[
]-------------------------------------------[
]-------------------------------------------[

P.S. > посылаю в первый
|-----------3------------------3--1------0---------------0--1--3--|
|----------------------------------------------2--1--2------------|

|-0---0--0-----0--1--3---1--0------------0-----------|
|-----------3------------------3--1------------------|
|------------------------------------2------1--2---2-|

|--
1|-----------0-------------0-------------2-------------1---|
2|---------1---1---------1---1---------1---1---------1---2-|
3|-------2-------------2-------------2-------------2-------|
4|------------------------------2-0------------------------|
5|---0-------------0-3-------------------------0-3---------|

Сл.Э.Успенского Муз.В.Шаинского

Am Dm
Медленно минуты уплывают в даль,
G C E7
Встречи с ними ты уже не жди.
Am Dm
И хотя нам прошлое немного жаль,
Am E7 Am
Лучшее, к
Медленно минуты уплывают в даль,
G C E7
Встречи с ними ты уже не жди.
Am Dm
И хотя нам прошлое немного жаль,
Am E7 Am
Лучшее, конечно, впереди.

Припев:
A7 Dm
Скатертью, скатертью