Gitarizm

Гитаризм

Конкурс на лучший кавер
Здесь могла бы быть Ваша реклама!
Хотите узнать как играть на гитаре? Гитаризм — лучший самоучитель гитары для начинающих!
ВИДЕHЬЕ М.Леонидов

Am Dm E7
Был обычнный серый питерский вечер,
Am Dm G
Я пошел бродить в дурном настроеньи,
C F
Только вижу - вдруг идет мне навстречу
Dm E7
То
Am E C G

e---------1-0-0-------------------0-0-0-0-5-3-3---3-3-3-1-1-0-----
h-------1----------------0--------1---------------0---------------
g-----2----------------1----------0---------------0---------------
d---2----------------2------------2---------------0---------------
2---3-1-3------1-1-0-0----1-0---0-1-1-3----------------
3-----------------------------2----------2-2-1-1-------
4------------------------------------------------2-----
5------------------------------------------------------
6------------------------------------------------------
Бургундия, Нормандия,
H
Шампань или Прованс -
C G H
Куда бы ни унес вас верный конь,
Am H
При вас мой меч фамильный
C E
И песенка при вас:
C Em
Где подлость, там схватка,
C
ВТОРОЙ БAТAЛЬОH

Am Dm
идет по просторам афганской земли
E7 Am
Второй батальон сегодня в путь трудный с тобой мы пошли
A7 Dm G C
Второй батальон где комбат замполит заменяли нам мать
D
В ЧУЖДОЙ ХРИСТОСУ

Am
дикой стране
A7 Dm
Где и дьявол гостить не желает

Hаши парни по скользкой зловещей струне
E
По приказу судьбу вновь пытают
A7
Hа страховку надежд нет порою у них
Dm
Влево шаг вправо шаг невозмож
В ДЕКAБРЕ ЗИМЫ HAЧAЛО

Am Dm

Gm C
В декабре дни рожденья есть
A7 Dm _
Для кого декабрь начало
Am E Am > 2 раза
Для кого лебединная песнь _/

В декабре меня кроха спросит
Всё проходит

G
Всё проходит - только бродят
D C (C)
В голове никчемные слова!
G
Ничего не происходит,
D C Hm
Просто я совсем сошёл с ума.
Бесполезное стремленье
Пропадает в суматохе лет.
И окажется глупее
D A
С утра ты пьешь свой кофе, ну а я пиво пью,
Hm G
Пытаясь позабыть вчерашний день.
Хочу скорей с дивана встать, на встречу с кем нибудь бежать,
Хочу давно, но не пускает лень.

Припев: Все равно, мне все равно.
Я вспоминаю часто что жизн
Вася

G F# E D
(1) Весь в голде на 600-м
C D
За рулём собственноручно
Ехал Вася по Можайке он в "Титаник" торопился
Слушал techno и бодрился
Улыбался, веселился
G F# E D C D C D E D
Никого он не боялся и в окошко матерился
Em Cmaj7 Am7 H7
На небе вороны, под небом монахи,
И я между ними в расшитой рубахе,
Cmaj7 Am7 H7
чежу на просторе, легка и пригожа,
Em Cmaj7 Am7 H7
И солнце взрослее