Gitarizm

Гитаризм

Конкурс на лучший кавер
Здесь могла бы быть Ваша реклама!
Хотите узнать как играть на гитаре? Гитаризм — лучший самоучитель гитары для начинающих!
I Почему так бывает часто:
Dm G7 C
Любит он, но не любишь ты,
Dm F C
Он у дома ждёт понапрасну,
Dm E Am
Оставляет под дверью цветы.
Am Dm
II За лю
всей песни, меняется только ритм.

Hm G(III)
Зачем судьба нас вместе свела,
Em F#
Любовь мне в сердце заложила,
Лишь на мученья обрекла,
Страданья только получила.

Я проклинать не буду выбор твой;
Нельзя ж проклясть, что человек т
Перебор: бас(он указан в скобках)-3-2-3-1-3-2-3

Вступление:
(4)|-----------------0-2-|
(5)|-3-3-3-3-2-2-2-2-----|
C(5) E(5) Dm(4) Am(5)
Я мертвый человек, любви у меня нет.
C(5) E(5) Dm(4) Am(5)
Я был таким веселым, сейчас грустнее всех.
A7(4) Dm(4)
pp
| | | | | | | |
E-|------------------------|------------------------|
B-|-----1-----1-----1-----1|-----1-----1-----1-----1|
G-|---2-----2-----2-----2--|---2-----2-----2-----2--|
D-|-2-----2-----2-----2----|-2-----2-----2-----2----|
A-|-0----------------------|------------------
I----4-I---4---0-3-1-I-----------I-0-------0-I-1-----I
I------I-------------I-2---2---2-I----1--1---I----2--I
I------I-------------I---2----2--I---2-2-----I---2-2-I
I------I-------------I-0-----3---I-----------I-0-----I
I------I-------------I-----------I-0---------I-------I
I--0---I-0---0-------I-----------I-----------
e|-0---0---0---------------------------------------|
B|---4---4---0-3-1-------------0---------0-1-------|
G|-----------------2---------2-----1---1-----------|
D|-------------------2-----2-----2---2-------2---2-|
A|-----------------0---0-3-----------------0---0---|
E|-----------------------------0-------------------|
Будет много войны, будет мало мужчин
A7 Dm
И на тысячу женщин нас будет один
Dm Am
Будут нас воровать, по талонам давать
F E Am 2 раза
По 100 грамм на всю бабскую рать . / в промежутке играть A7
C* x32033
D x00232
Em/B x22000
intro(Играть 4 раза):
G C*
|---------------3-----|
|------3--------3-----|
|------0-------0-0----|
|-----0-0-----2---2---|
|----2---2---3--------|
|---3-----------------|
G C* G C*
На дороге разбитое тело,
Две тысячи лет идет война
C G
Сама себе идет она.
Am F
Идет ко мне
C G
И уйти мне.
Am F
Припев: Вставай браток
C G
Бери ружье,
Am F
И не ходи на самотек,
В черной рамке у окна на стене.
Em D
Фотография твоя висит на гвозде
C G
Синие погоны, голубой берет
Am H7
Будишь вечно молодым 18 лет.

Em G
Был, конечно, на тебя голубой берет
Am Dm E Am
Белые деревья, белые дома
Am Dm G C
Белые прохожие, белая зима
Am Dm G C
На полях, на белых, белый снег лежит
Am Dm E Am
Из трубы из белой, белый дым валит.

Белая подушка, белая постель
Нежная девчонка, р
Белая невеста
C D
Принесла в день свадьбы
Em
На могилу воина
C D
Белые цветы.
C D
Он до службы срочной }
G C }
Обещал девчонке }
Am C } 2 раза
Что моей женою }
D Em }
Am Dm E
Без тебя тоскует дом,стоя у дороги
Am Dm E
Без тебя тоскует сердце, словно камень в нем.
Dm E Am C
Ты ушел, и в доме том все закрылись дверцы.
Dm E Am(E) C(Am) 2 раза
Гул мотора разорвал ночной покой,
G C
По дороге мчится рокер молодой,
Am Dm
Чёрной краской разукрашен его шлем
Em C
И тот парнишка он был знаком везде и всем.

И каждый вечер он к подъезду подъезжал,
Там у клёна свою девушку он ждал
И
I куплет
Am Dm
Бежит шоссе канает автосрада
E Am E
а скорость 200 больше нам не надо
Am Dm
мы едем едем едем в большой город
E Аm
и километры убегают вдаль.

припев: