Gitarizm

Гитаризм

Конкурс на лучший кавер
Здесь могла бы быть Ваша реклама!
Хотите узнать как играть на гитаре? Гитаризм — лучший самоучитель гитары для начинающих!
Проигрыш:

E ----------------------------|---------------------------------|
Н
E ||------------10-|----------10-|----------5-|----------4-----|
Н
Проигрыш:
1|---------10--------10--------5-------4-|
2|------10---------9---------6-------5---|
3|---10----------9---------7-------7-----| 2 (раза)
4|-0-----------0---------0-------0-------|

Версия :
1|-------1-------0-------5-------4-|
2|-----
Em
Он рубил, поджигал и бил в упор,
Волонтер темных дел и чужих афер.
Он копил, собирал на старость лет,
Он забыл, но его не забыли, нет.

Em
В глубокой шахте который год
Таится чудище-змей.
Стальные нервы, стальная плоть,
Стальная хватка когтей.

Он копит силы, лениво ждет,
Направи
Gtr1

E ||----------------------------|-------------------------|
B
Em C
Дверь на ключ, и свинцом - тоска,
(Ё-моё, грехи наши тяжки!)
A *! D !
Я сижу на