Gitarizm

» Тексты и аккорды к песням для гитары » Zz Top - Tush (табулатура)

Гитаризм

Конкурс на лучший кавер
Здесь могла бы быть Ваша реклама!
Хотите узнать как играть на гитаре? Гитаризм — лучший самоучитель гитары для начинающих!

Zz Top - Tush (табулатура)



From: [email protected] (Martin Hermans)

TUSH (with solo)
by ZZ TOP

here is up to the second verse of Tush plus
this time I have included the first solo of the song.

---------------|------------|----------------|---------------| 
---------------|-----5------|----------------|---------------|
----5---5-3----|-5---5-3----|----5---5-3-----|-5---5-3-------|
----5---5-3----|-5---5-3----|----5---5-3-----|-5---5-3-------|
---------------|------------|----------------|---------------|
3-3---3------3-|---3------1/|3-3---3-----3-3-|---3-------3-1/|

		      Ive ..
---------------|-------------|----------------|--------------|
---------------|-----5-------|----------------|--------------|
----5---5-3----|-5---5-3-----|----5---5-3-----|---5---5-3----|
----5---5-3----|-5---5-3-----|----5---5-3-----|---5---5-3----|
---------------|-------------|----------------|--------------|
3-3---3------3-|---3-----3-1/|3-3---3-----3-1/|3-3--3-----3--|

	my ...
--------------|--------------|------------------------|-------------------|
---5----------|--------------|------------------------|-------------------|
---5---5-3----|---5---5-3----|------------------------|-------------------|
---5---5-3----|---5---5-3----|-------10----10---10----|-10----------------|
--------------|--------------|-10-10-12-12-13---12-12-|-10-10-------------|
-3---3------3-|-3---3------6-|-8--8-----------8-------|-8--8--0-0-1-1-2-2-|

			  I ...
----------------|---------------|-----------------|-----------------| 
----------------|---------------|-----------------|-----------------|
----5---5-3-----|-5---5-3---5---|-2-2-4-4-5-5-4---|-----------------|
----5---5-3-----|-5---5-3---5-0-|-0-0-0-0-0-0-0---|-5-5-7-7-5-5-7-0-|
----------------|---------------|-----------------|-3-3-3-3-3-3-3---|
3-3---3-----3-3-|---3-----------|-----------------|-----------------|

			    Ive .....(into the second verse)
------------------|----------------|
------------------|----------------|
------------------|--------------0-|
------------------|---5-6-7------0-|
------7---8-8-7-7-|-5-3-4-5--------|
-/3-3---3-3-3-3-3-|-3--------------|


First solo:

----|------------------|-------------------|------------------------|
----|------------------|-------------------|-----------11/12--------|
----|-----12-12----12--|-12--12--12--1210-|/12--12-----------------|
-12p|0/12--------------|-----12------------|--------12--------12----|
----|------------------|-------------------|---------------------12-|
----|------------------|-------------------|------------------------|

---------------------------|---------------3-|-----------------|
-11/12---------------------|----5--/5---5---|-----------------|
----------12----------123-|-5------/5-------|-5---3---5--/3/3-|
-------12----1210/12------|--X--------5-----|---5---5---5-----|
---------------------------|-----------------|-----------------|
---------------------------|-----------------|-----------------|

--------------------|---------------------|-------------------|
----/12-------------|---/12---------------|/7---6/7---------0-|
-0--/12------3P0--3P|0--/12---------------|/75-----7---75---|
----/12-------------|---/12---------127--|/7-------7---75---|
--------------------|---------------------|-------------------|
--------------------|---------------------|-------------------|

------------------|----------------------|------------------|
/5----------------|----------/11---------|------------------|
/5---3---5--/3-/3p|0--/12--------1210---|/10---------------|
/5-5---0----------|--0----12----------12-|------------------|
-----------5------|----------------------|------------------|
------------------|----------------------|------------------|

--------------------------------|-------------------------------|
-------12----12----12----12-12-|-------12-12-1210-------12----|
--------------------------------|-------------------------------|
-10/12----12----12----12--------|-10/12-------------10/12----12-|
--------------------------------|-------------------------------|
--------------------------------|-------------------------------|

-------------------------------------|--------------------------|
-------12----12----1210-------12----|-1210---------10----12--|
-------------------------------------|---------12-10-10-12-12--|
-10/12----12----12-------10/12----12-|------10------------------|
-------------------------------------|--------------------------|
-------------------------------------|--------------------------|

--------------------|----------------|-------------------------------|
-/5---5----5----6---|----5--5--------|---------------/11-/11---------|
-/5---------------6|5----------53--|-12-12-1210----------1210----|
--------------------|--5-------------|------------12--------1210-12-|
--------------------|----------------|-------------------------------|
--------------------|----------------|-------------------------------|

---------------------------|----------------19-------------|
-------11-12------------20-|-20-20-2018-------1817-------|
-12-----------12--17/19----|-------------19----------17/19-|
----12--------12-----------|-------------19----------------|
---------------------------|-------------------------------|
---------------------------|-------------------------------|

-15-----------------------------|--------------------------|
---1413-11/12-11/12---1210----|-12-12-1210--------------|
-----------------------1210----|-12-12-1210----12--1210-|
-----------------------------12-|-------------12-----1210-|
--------------------------------|--------------------------|
--------------------------------|--------------------------|

		 Take me back...
------------------------|
------------------------|
---/12-----14------14/--|
-9----------------------|
------------------------|
------------------------|


Автор: muzzon