Gitarizm

Гитаризм

Конкурс на лучший кавер
Здесь могла бы быть Ваша реклама!
Хотите узнать как играть на гитаре? Гитаризм — лучший самоучитель гитары для начинающих!

Zz Top - Tush (бас)




From: R.F. Silver 

TUSH:  ZZ TOP

It's pretty simple. There's not much to it really.

INTRO:
G----------------------------------------------------------------
D----------------------------------------------------------------
A----------------------------------------------------------------
E-3-3-3-3-3-3-3-3-3-3-3-3-3-3-3-3-3-3-3-3-3-3-3-3-3-3-3-3-3-0-1-3

VERSES:
G-----------------------------------------------------------------
D-----------------------------------------------------------------
A-----------------------------------------------------------------
E-3-3-3-3-3-3-3-3-3-3-3-3-3-3-3-3-3-3-3-3-3-3-3-3-3-3-3-3-3-3-3-3-

G----------------------------------------------------------------
D----------------------------------------------------------------
A-3-3-3-3-3-3-3-3-3-3--------------------------------------------
E---------------------0-0-1-1-2-2-3-3-3-3-3-3-3-3-3-3-3-3-3-3-3-3

G-------------------------------------------------------
D-------------------------------------------------------
A-5-5-5-5-5-5-5-5-3-3-3-3-3-3-3--------------------3-4-5
E-------------------------------1-3-3-3-3-3-3-3-3-3-----

GUITAR SOLO:
G------------------------------------------------------------------
D------------------------------------------------------------------
A------------------------------------------------------------------
E-3-3-3-3-3-3-3-3-3-3-3-3-3-3-3-3-3-3-3-3-3-3-3-3-3-3-3-4-4-5-5-6-6

G-----------------------------------------------------------
D-----------------------------------------------------------
A-5-5-5-5-5-5-5-5-3-3-3-3-3-3-3-3---------------------3-4-5-
E---------------------------------3-3-3-3-3-3-3-3-3-3-------

OUTRO GUITAR SOLO:

G----------------------------------------------------------
D----------------------------------------------------------
A----------------------------------------------------------
E-3--------3-3-3-3-3-3-3-3-3-3-3-3-3-3-3-3-3-3-3-3-3-3-3-3-

G-----------------------------------------------
D-----------------------------------------------
A-----------------3-3-3-3-3-3-3-3-3-------------
E-3-3-4-4-5-5-6-6-------------------0-0-1-1-2-2-

G-------------------------------------------------
D-------------------------------------------------
A---------------------------------5-5-5-5-5-5-5-5-
E-3-3-3-3-3-3-3-3-3-3-3-3-3-3-3-3-----------------

G--------------------------------------
D--------------------------------------
A-3-3-3-3-3-3-3------------------------
E---------------3-3----------------4-3-




I told you it was simple.  Nothing to it at all. 
I'm just not sure about the timing but it's close.
I learned it in about five minutes or so. Totally easy riff.
I hope it's as easy to learn for you as it was for me.


SUBMITTED BY: Rob Silver(The Gimp) Bassist for the soon coming band
KIDDIE PORN.


Автор: muzzon