Gitarizm

Гитаризм

Конкурс на лучший кавер
Здесь могла бы быть Ваша реклама!
Хотите узнать как играть на гитаре? Гитаризм — лучший самоучитель гитары для начинающих!

Zz Top - Tush (аккорды)




Date: Fri, 12 Jan 2001 14:49:30 -0500
From: John Seekins 
Subject: z/zz_top/tush.crd

Artist: ZZ-Top
Song:   Tush
Tabber: John Seekins ([email protected])
------------------

Stnd. Tuning
This song is basically 12-bar blues in G

Here's the main riff:
E------------------------------------------|
B------------------------------------------|
G-----5---5-3---5---5-3--------------------|
D-----5---5-3---5---5-3--------------------|
A------------------------------------------|
e-3-3---3-----3---3------------------------|

Here's the C riff:
|------------------------------------------|
|------------------------------------------|
|------------------------------------------|
|-5-5-7-5-8-5-7-5-5------------------------|
|-3-3-3-3-3-3-3-3-3------------------------|
|-------------------0-0-0-1-1-2-2----------|

Here's the turn around:
                        D7
|------------------------------------------|
|------------------------------------------|
|-----------------------5------------------|
|-----------------------4------------------|
|-5-5-7-5-8-5-7-5-5-3-5-5------------------|
|-3-3-3-3-3-3-3-3-3------------------------|

Song goes G (riff)x2 - C (riff) - G (riff) - D - C - G (turn around)


Автор: muzzon