Gitarizm

Гитаризм

Конкурс на лучший кавер
Здесь могла бы быть Ваша реклама!
Хотите узнать как играть на гитаре? Гитаризм — лучший самоучитель гитары для начинающих!

Zz Top - Sleeping Bag


-------------------|
-------------------|
-------5-----------|
-------5-----------|
-------3-----------|
-------------------|
 

----------------------------------------|
----------------------------------------|
--5------5--------5---------5-----------|
--5--------5--------5---------5---------|x2
--3--3-3-----3-3-3----3-3-3-----3-3-3---|
----------------------------------------|

the random notes on the A D and G strings are palm muted

--------------------------------------------|
--------------------------------------------|
--5-8-5-----5---------5---------5-----------|
--5-8-5-------5---------5---------5---------|x3
--3-6-3-3-3-----3-3-3-----3-3-3-----3-3-3---|
--------------------------------------------|


---------------------------------------|
---------------------------------------|
--5-8------------5--------------5------|
--5-8-------3-5--5---------3-5--5------|
--3-6--5--3-1-3--3----5--3-1-3--3------|
-------3--1-----------3--1-------------|
Автор: muzzon