Gitarizm

Гитаризм

Конкурс на лучший кавер
Здесь могла бы быть Ваша реклама!
Хотите узнать как играть на гитаре? Гитаризм — лучший самоучитель гитары для начинающих!

Zz Top - Sharp Dressed Man (2 вариант)


Intro:
C5 C5
|------------------|--------------|
|*-----------------|-------------*|
|*-3-3-3-3-3-3-3-3-|-3-3-3-3-R-R-*| (x4)
|------------------|--------------|
1 & 2 & 3 & 4 & 1 & 2 & 3 4

Verse:
C5 C5 Bb5
|------------------|-----------------|-----------------|
|*-----------------|-----------------|-----------------|
|*-3-3-3-3-3-3-3-3-|-3-3-3-3-3-3-3-3-|-1-1-1-1-1-1-1-1-|
|------------------|-----------------|-----------------|
1 & 2 & 3 & 4 & 1 & 2 & 3 & 4 & 1 & 2 & 3 & 4 &

F5
|------------------|
|-----------------*|
|-----------------*|(x2)
|-1-1-1-1-1-1-1-1--|
1 & 2 & 3 & 4 &

Chorus:
G5 G5 C5 C5
|-----------------|-----------------|---------|-------------|
|-----------------|-----------------|---------|-------------|
|-----------------|-----------------|-3-R-R-R-|-R-R-R-0-1-2-|
|-3-3-3-3-3-3-3-3-|-3-3-3-3-3-3-3-3-|---------|-------------|
1 & 2 & 3 & 4 & 1 & 2 & 3 & 4 & 1 2 3 4 1 2 3 & 4 &

Solo:
C5
|-------------------|
|*-----------------*|
|*-3-3-3-3-3-3-3-3-*|(x19)
|-------------------|
1 & 2 & 3 & 4 &
C5
|---------|
|---------|
|-3-1-----|
|-----3---|
1 2 3 4

F5 F5 C5
|-------------------|-----------------|-----------------|
|*------------------|-----------------|-----------------|
|*------------------|-----------------|-3-3-3-3-3-3-3-3-|
|--1-1-1-1-1-1-1-1--|-1-1-1-1-1-1-1-1-|-----------------|
1 & 2 & 3 & 4 & 1 & 2 & 3 & 4 & 1 & 2 & 3 & 4 &

C5
|------------------|
|-----------------*|
|-3-3-3-3-3-3-3-3-*|(x2)
|------------------|
1 & 2 & 3 & 4 &

End:
C5
|-------------------|
|*-----------------*|
|*-3-3-3-3-3-3-3-3-*|(x20)
|-------------------|
1 & 2 & 3 & 4 &

F5 (x4) C5 (x4)
|--------------------|-------------------|
|*------------------*|*-----------------*|
|*------------------*|*-3-3-3-3-3-3-3-3-*| (repeat to fade-out)
|--1-1-1-1-1-1-1-1---|-------------------|
1 & 2 & 3 & 4 & 1 & 2 & 3 & 4 &

Song Structure:
intro
verse
chorus
solo
verse
chorus
Автор: muzzon