Gitarizm

Гитаризм

Конкурс на лучший кавер
Здесь могла бы быть Ваша реклама!
Хотите узнать как играть на гитаре? Гитаризм — лучший самоучитель гитары для начинающих!
Загрузка...

Zz Top - Precious And Grace (табулатура)


Pretty simple song. I can add the first slide solo in if you want but I'm pretty lazy. I 
know the second one, and usually just improvise it.

***intro***
|-----------|
|-----------|
|-----------|   play riff 4 times
|----3------|
|----1------|
|1h3---3--1-|

***verse***
ridin top the floodway...
|-----------|
|-----------|
|-----------|   play riff 4 times
|----3------|
|----1------|
|1h3---3--1-|

just crusin slow through the dark of night...
|-----------|
|-----------|   play riff 2 times
|----3------|
|----1------|
|1h3---3--1-|
|-----------|

Precious and grace will treat your right....
|----------------|
|----------------|
|----------------|
|-7-7-7-7-7-7-7-7|
|5-5-5-5-5-5-5-5-|
|----------------|

|-----------|
|-----------|
|-----------|   play riff twice before going into next verse
|----3------|
|----1------|
|1h3---3--1-|

***verse #2***
Good God Almighty, we was goin' down slow,
|-----------|
|-----------|
|-----------|   play riff 4 times
|----3------|
|----1------|
|1h3---3--1-|

Cryin', just a flyin' down a put out road
|-----------|
|-----------|   play riff 2 times
|----3------|
|----1------|
|1h3---3--1-|
|-----------|

precious and grace in my flathead ford...
|----------------|
|----------------|
|----------------|
|-7-7-7-7-7-7-7-7|
|5-5-5-5-5-5-5-5-|
|----------------|

|-----------|
|-----------|
|-----------|   play riff twice before going into bridge part
|----3------|
|----1------|
|1h3---3--1-|

***bridge***
|-------------------------------|-------------------------------|
|-------------------------------|-------------------------------|
|-------------------------------|-------------------------------|
|5-4-3-5-4-3-5-4-3-5-4-3-5-4-3-0|5-4-3-5-4-3-5-4-3-5-4-3-5-4-3-0|
|-------------------------------|-------------------------------|
|-------------------------------|-------------------------------|

Then go to the guitar solo just backed up by f chord and d#

come back from guitar solo straight to verse

***verse#3***
so if your out rollin late some night
|-----------|
|-----------|
|-----------|   play riff 4 times
|----3------|
|----1------|
|1h3---3--1-|

and your lookin' for that supernatural delight
|-----------|
|-----------|   play riff 2 times
|----3------|
|----1------|
|1h3---3--1-|
|-----------|

Precious and grace will treat your right....
|----------------|
|----------------| play twice this time
|----------------|
|-7-7-7-7-7-7-7-7|
|5-5-5-5-5-5-5-5-|
|----------------|

END SONG ON GUITAR SOLO BACKED UP BY MAIN RIFF OF THE SONG
Автор: muzzon