Gitarizm

» Тексты и аккорды к песням для гитары » Zz Top - Pearl Necklace bass (табулатура)

Гитаризм

Конкурс на лучший кавер
Здесь могла бы быть Ваша реклама!
Хотите узнать как играть на гитаре? Гитаризм — лучший самоучитель гитары для начинающих!

Zz Top - Pearl Necklace bass (табулатура)


Pearl Necklace by ZZ Top
(standard tuning)

Intro
|--------------------------------|
|--------------------------------|
|----------------0---0-0---0--0--|
|-0---0-0---0--0-----------------|

verse
|-------------------------------|
|-------------------------------|
|-2---2-2---2--2----------------|
|----------------0---0-0---0--0-|


prechorus
|-------------------------------|
|-------------------------------|
|-4---4-4---4--4----------------|
|----------------5---5-5---5--5-|


chorus
|--------------------------------|
|--------------------------------|
|----------------0---0-0---0--0--|
|-0---0-0---0--0-----------------|



|---------------------------------------------------------------------|
|---------------------------------------------------------------------|
|-0-0-0-0-0-0-0-0-0--5-5-5-5-5-5-5-5------------------0-0-0-0-0-0-0-0-|
|-------------------------------------3-3-3-3-3-3-3-3-----------------|


|---------------------------------------------------------------------|
|---------------------------------------------------------------------|
|-0---0---0---0-----5---5---5---5---------------------0---0---0---0---|
|-------------------------------------3---3---3---3-------------------|


this next part keeps going right to the end
|----------------------------------------------------------------|
|----------------------------------------------------------------|
|-0----0-0--5--3-----5-5-5-5-5-5-5-5--7--5--3--------------------|
|-----------------5----------------------------3-3-3-3-3-3-3-3---|


|---------------------------|
|---------------------------|
|-7--5--3--0--0-0-0-0-0-0-0-|
|---------------------------|
Автор: muzzon