Gitarizm

Гитаризм

Конкурс на лучший кавер
Здесь могла бы быть Ваша реклама!
Хотите узнать как играть на гитаре? Гитаризм — лучший самоучитель гитары для начинающих!
Загрузка...

Zz Top - My heads in mississippi (табулатура)




From: mhermans@girtab.usc.edu (Martin Hermans)
Subject: TAB: ZZ Top My Head's in Mississippi

Here is the beginning of My Head's in Mississippi. The rhythm guitars are
pretty repetitive in this song. 

I didn't know what to tab out for this song, so if you have a certain
part in mind (some of the lead, one of the solos, etc) just mail me with
your request and I will add it to this tab. Mail to : hermans@scf.usc.edu

--------------------------------------------------------------------------------


------------------|--------------|
------------------|--------------|
----2-----2-----2-|----7---7-7---|
----2-----2-----2-|----7---7-7---|
-0--------0-----0-|--0---0-------|
------------------|--------------|



------------------|--------------|
------------------|--------------|
----2-----2-----2-|----7---7-7---|
----2-----2-----2-|----7---7-7---|
-0--------0-----0-|--0---0-------|
------------------|--------------|

                   --------------|
                   --------------|
                   -------5h7p5p0|
                   ---5----------|
                   -0---0--------|
                   --------------|



------------------|--------------|
------------------|--------------|
----2-----2-----2-|----7---5-7---|
----2-----2-----2-|----7---5-7---|
-0--------0-----0-|--0---0-------|
------------------|--------------|

------------------|--------------|
------------------|--------------|
-5b---------------|--------5-----|
-5b---------------|----5h7--7-5-7|
------------------|--0-----------|
------------------|--------------|



------------------|--------------|
------------------|--------------|
----2-----2-----2-|----7---7-7---|
----2-----2-----2-|----7---7-7---|
-0--------0-----0-|--0---0-------|
------------------|--------------|

------------------|
------------------|
------------------|
------5-----------|
------------------|
------------------|



------------------|--------------|
------------------|--------------|
----2-----2-----2-|----7---7-7---|
----2-----2-----2-|----7---7-7---|
-0--------0-----0-|--0---0-------|
------------------|--------------|



------------------|
------------------|
----2-----2-----2-|
----2-----2-----2-|
-0--------0-----0-|
------------------|


Автор: muzzon