Gitarizm

Гитаризм

Конкурс на лучший кавер
Здесь могла бы быть Ваша реклама!
Хотите узнать как играть на гитаре? Гитаризм — лучший самоучитель гитары для начинающих!

Zz Top - My Heads In Mississippi


------------------|--------------|
------------------|--------------|
----2-----2-----2-|----7---7-7---|
----2-----2-----2-|----7---7-7---|
-0--------0-----0-|--0---0-------|
------------------|--------------|

\

------------------|--------------|
------------------|--------------|
----2-----2-----2-|----7---7-7---|
----2-----2-----2-|----7---7-7---|
-0--------0-----0-|--0---0-------|
------------------|--------------|

--------------|
--------------|
-------5h7p5p0|
---5----------|
-0---0--------|
--------------|

\

------------------|--------------|
------------------|--------------|
----2-----2-----2-|----7---5-7---|
----2-----2-----2-|----7---5-7---|
-0--------0-----0-|--0---0-------|
------------------|--------------|

------------------|--------------|
------------------|--------------|
-5b---------------|--------5-----|
-5b---------------|----5h7--7-5-7|
------------------|--0-----------|
------------------|--------------|

\

------------------|--------------|
------------------|--------------|
----2-----2-----2-|----7---7-7---|
----2-----2-----2-|----7---7-7---|
-0--------0-----0-|--0---0-------|
------------------|--------------|

------------------|
------------------|
------------------|
------5-----------|
------------------|
------------------|

\

------------------|--------------|
------------------|--------------|
----2-----2-----2-|----7---7-7---|
----2-----2-----2-|----7---7-7---|
-0--------0-----0-|--0---0-------|
------------------|--------------|

\

------------------|
------------------|
----2-----2-----2-|
----2-----2-----2-|
-0--------0-----0-|
------------------|
Автор: muzzon