Gitarizm

Гитаризм

Конкурс на лучший кавер
Здесь могла бы быть Ваша реклама!
Хотите узнать как играть на гитаре? Гитаризм — лучший самоучитель гитары для начинающих!

Zz Top - Manic Mechanic


Intro
(4x)
|--9----9------9----9------|--9----9------9----9------|
|--10---10-----10---10-----|--10---10-----10---10-----|
|--------------------------|--------------------------|
|--------------------------|--------------------------|
|--------------------------|--------------------------|
|-----0----0-0----0----0-0-|-----0----0-0----0----0-0-|
 
Verse
|-----------------------------------------------------|
|-----------------------------------------------------|
|-----------------------------------------------------|
|--0h2--------------2-2---------2-----2-----0h2-------|
|-------------------0-0-------------------------------|
|---------------------------------3p0---3p0-----------|
You want to race? If you insist.

|-----------------------------------------------------|
|-----------------------------------------------------|
|-----------------------------------------------------|
|------------------------------2-2---2-----2----------|
|------------------------------0-0--------------------|
|--------------------------------------3p0---3p0------|
At that price, I can't resist.

|--7--0--------5--0--------3--0--------3--0-----------|
|--7----0------5----0------3----0------3----0---------|
|--9------9----7------7----5------5----5------5-------|
|--7--------7--5--------5--3--------3--3--------3-----|
|--9-----------7-----------5-----------5--------------|
|--7-----------5-----------3-----------3--------------|
That's right, that's right, that's right.

Interlude after 2nd Chorus
(2x) (2x)
|------------------------|----------------------------|
|------------------------|----------------------------|
|------------------------|----------------------------|
|-2p0-------2-2p0------2-|-4p2--2-----2--4p2--2-----2-|
|----2-----------2-------|----4--------------4--------|
|-----3p2p0-------3p2p0--|-------5p4p2---------5p4p2--|

Play above twice then
(3x)
|-------------------------|---------------------------|
|-------------------------|---------------------------|
|-------------------------|---------------------------|
|-12p10--10--------10-----|-11p9---9---------9--------|
|------12-----------------|------11-------------------|
|----------13p12p10--10-9-|----------12p11p9---9------|
Автор: muzzon