Gitarizm

Гитаризм

Конкурс на лучший кавер
Здесь могла бы быть Ваша реклама!
Хотите узнать как играть на гитаре? Гитаризм — лучший самоучитель гитары для начинающих!

Zz Top - Lowrider (бас)



Tab by Gaspard Jeanneret. Enjoy   
Lowrider  ZZ top

/= hammer

-----------------------------------
-----------3---3-/5-3-/5-----------
----2-3-4-5---5--------------------
-3---------------------------------


---------------3-/5-3-/5------------
-----------3------------------------
----2-3-4-5---5---------------------
-3----------------------------------

I think it's that during all the song ...
I advise you just to listen the music before or playing with the CD for the right tempo, which is not easy .
 Have fun    


Автор: muzzon