Gitarizm

» Тексты и аккорды к песням для гитары » Zz Top - Legs intro (табулатура)

Гитаризм

Конкурс на лучший кавер
Здесь могла бы быть Ваша реклама!
Хотите узнать как играть на гитаре? Гитаризм — лучший самоучитель гитары для начинающих!

Zz Top - Legs intro (табулатура)



this is the very intro to legs by zz top (very accurate and might i say cool.


---------------
--10--9--------
--11--9-9------  does this 4x then...
--------9-12h14
---------------
---------------

-------------------------------------------------
--5-4---------5-4---------5-4---------5-4--------
--6-4-6-------6-4-6-------6-4-6-------6-4-6------
------6-9h11------6-9h11------6-6h11------6-1s2--
-------------------------------------------------
-------------------------------------------------

ENJOY

Автор: muzzon