Gitarizm

» Тексты и аккорды к песням для гитары » Zz Top - Legs bass (табулатура)

Гитаризм

Конкурс на лучший кавер
Здесь могла бы быть Ваша реклама!
Хотите узнать как играть на гитаре? Гитаризм — лучший самоучитель гитары для начинающих!

Zz Top - Legs bass (табулатура)


ZZ Top - Legs from 1983
tuneing is G,D,A,E as you can see


intro
       8x
G|-------------------|
D|-------------------|
A|-------------------|
E|--0-0-0-0-0-0-0-0--|

verses
     play 4x's             play 4x's   than repeat 2 x's
G|-------------------|-------------------|
D|-------------------|-------------------|
A|-------------------|--4-4-4-4-4-4-4-4--|
E|--0-0-0-0-0-0-0-0--|-------------------|

chorus
          2x                 2x                4x
G|-------------------|------------------|-------------------|
D|-------------------|------------------|-------------------|
A|-------------------|------------------|-------------------|
E|--5-5-5-5-5-5-5-5--|-7-7-7-7-7-7-7-7--|--0-0-0-0-0-0-0-0--|

guitar solo 1 is  verse/chorus

guitar solo 2 is  verses
Автор: muzzon