Gitarizm

Гитаризм

Конкурс на лучший кавер
Здесь могла бы быть Ваша реклама!
Хотите узнать как играть на гитаре? Гитаризм — лучший самоучитель гитары для начинающих!

Zz Top - La grange (бас)



ZZ Top - La Grange - Bass Tab

Riff 1:
|-----------------------|
|*---------------------*|
|*-0-0-0-0-0-0-0-3-5-3-*|
|-----------------------|
   1 amp; 2 amp; 3 amp; a 4 amp; a

Riff 2:
|-----------------------|
|*---------------1-3-1-*|
|*-3-3-3-3-3-3-3-------*|
|-----------------------|
   1 amp; 2 amp; 3 amp; a 4 amp; a

Riff 3:
|----------|-------------2----|
|*---------|-----------------*|
|*---------|-----0-0-3-3-----*|
|--3-R-2-R-|-1-R-----------r--|
   1 2 3 4   1 2 3 e amp; a 4 amp;

Riff 4(end):
|-----------------------|
|*---------------------*|
|*-0-3-0-3-0-3-0-3-5-3-*|
|-----------------------|
   1 amp; 2 amp; 3 amp; a 4 amp; a     

By: Johari Taylor
E-mail: [email protected]


Автор: muzzon