Gitarizm

Гитаризм

Конкурс на лучший кавер
Здесь могла бы быть Ваша реклама!
Хотите узнать как играть на гитаре? Гитаризм — лучший самоучитель гитары для начинающих!
Загрузка...

Zz Top - La Grange


----------------------|--------------------------------|
----------------------|--------------------------------|
-------2--2--2--2--2--|.-2----2----2-4--2--2--2--2--2-.|
----2--2--2--2--2--2--|.-2-2--2-4--2-2--2--2--2--2--2-.|
----0-----------------|----0----0----------------------|
----------------------|--------------------------------|
v ^ ^ ^ ^ ^ ^ v ^ v ^ v ^ ^ ^ ^ ^
 
During the first verse, keep repeating the section above between |: and :|
occasionally playing it this way to emphasize the words:

-----------------------------------
-----------------------------------
---2----2----2----2--2--2--2--2----
---2----2----2-2--2--2--2--2--2----
-----3----5----0-------------------
-----------------------------------
^ v ^ v ^ v ^ ^ ^ ^ ^

Then after 'They got a lot o' nice girls' comes the break. Resume playing
the same as above with heavy distortion:

----------------------|--------------------------------|
----------------------|--------------------------------|
-------2--2--2--2--2--|.-2----2----2----2--2--2--2--2-.|
----2--2--2--2--2--2--|.-2----2----2-2--2--2--2--2--2-.|
----0-----------------|----3----5----0-----------------|
----------------------|--------------------------------|
v ^ ^ ^ ^ ^ ^ v ^ v ^ v ^ ^ ^ ^ ^

Keep repeating the part in between |: :| during the second verse, then
after 'I might be mistaken', switch to:


----------------------------|-------------------------------------------|
----------------------------|-------------------------------------------|
----------------------------|.-----8--8-10--10-------------------------.|
----10-10--10--10--10--10---|.--10-8--8-10--10-10--10--10--10--10--10--.|
----10-10--10--10--10--10---|---10-------------10--10--10--10--10--10---|
----------------------------|-------------------------------------------|
Автор: muzzon