Gitarizm

» Тексты и аккорды к песням для гитары » Zz Top - Just Got Paid bass (табулатура)

Гитаризм

Конкурс на лучший кавер
Здесь могла бы быть Ваша реклама!
Хотите узнать как играть на гитаре? Гитаризм — лучший самоучитель гитары для начинающих!

Zz Top - Just Got Paid bass (табулатура)


-------------------------------------------------------------------------------
			     Just Got Paid - ZZ Top
-------------------------------------------------------------------------------

Tabbed By : Corey

Tuning:EADG

     (0:03)
G|---------------9~---|
D|------5----7p5------|2x 
A|----7---7-5---7-----|
E|--5-----------------|

_____(0:18)________________________________________________________________________
G|---------------------------------------------------------------------------|     |
D|---------------------------------------------------------------------------|     |
A|--7-7-7-7-7-7-7-7-7-7-7-7-7-7-7-7-7-7-7-7-7-7-7-7-7-7-7-7-7-7-7-7----------|
E|---------------------------------------------------------------------------|
                                                                               2x  
G|---------------------------------------------------------------------------|
D|---------------------------------------------------------------------------|
A|--7777777777777777--555555555555555----------------------------------------|    
E|---------------------------------------------------------------------------|     |
___________________________________________________________________________________|

G|-------------------------------------------------|
D|-------------------------------------------------|
A|-7-7-7-7-7-7-7-7-7-7-7-7-7--------------5~----5~-|
E|-----------------------------5~----5~------------|

___________________________________________________________________________________
G|---------------------------------------------------------------------------|     |
D|---------------------------------------------------------------------------|     |
A|--7-7-7-7-7-7-7-7-7-7-7-7-7-7-7-7-7-7-7-7-7-7-7-7-7-7-7-7-7-7-7-7----------|
E|---------------------------------------------------------------------------|
                                                                               2x  
G|---------------------------------------------------------------------------|
D|---------------------------------------------------------------------------|
A|--7777777777777777--555555555555555----------------------------------------|    
E|---------------------------------------------------------------------------|     |
___________________________________________________________________________________|

G|---------------------------------------------------|
D|---------------------------------------------------|
A|-7-7-7-7-7-7-7-7-7-7-7-7-7-7-------------5~----5~--|
E|------------------------------5~----5~-------------|

G|-------------------------------------------------|
D|-------------------------------------------------|
A|-7-7-7-7-7-7-7-7-7-7-7-7-7-7-7-7-7-7-7-7---------|
E|-------------------------------------------x--5~-|

G|---------------------------------------------------------------------------|
D|---------------------------------------------------------------------------|
A|----------x7-7-7---------x7-7-7---------x7-7-7---------x7-7-7--------------|
E|--5-5-5-5--------5-5-5-5--------5-5-5-5--------5-5-5-5---------------------|

G|----------------------------------|
D|----------------------------------|11x
A|----------7-7-7-7-----------------|
E|--5-5-5-5---------5-5-5-0-2-3-5---|

G|---------------------------------------------------------------------------|
D|---------------------------------------------------------------------------|
A|-7-7-7-7-(7)-------7-7-7-7-(7)-------7-7-7-7-(7)-------7-7-7-7-(7)---------|
E|-------------5-5-5-------------5-5-5-------------5-5-5-------------5-5-5---|

G|-----------------------|
D|-----------------------|8X
A|-7-7-7-7-7-7-7-7-5H7-7-|
E|-----------------------|
   
G|-----------------------|
D|-----------------------|
A|--7----------5-----7---|
E|--------5--------------|
  
(3:16)
G|---------------9~--|
D|------5----7p5-----|
A|----7---7-5---7----|
E|--5----------------|

___________________________________________________________________________________
G|---------------------------------------------------------------------------|     |
D|---------------------------------------------------------------------------|     |
A|--7-7-7-7-7-7-7-7-7-7-7-7-7-7-7-7-7-7-7-7-7-7-7-7-7-7-7-7-7-7-7-7----------|
E|---------------------------------------------------------------------------|
                                                                               2x  
G|---------------------------------------------------------------------------|
D|---------------------------------------------------------------------------|
A|--7777777777777777--555555555555555----------------------------------------|    
E|---------------------------------------------------------------------------|     |
___________________________________________________________________________________|


G|----------------------------------------------------|
D|----------------------------------------------------|
A|-7-7-7-7-7-7-7-7-7-7-7-7-7-7-------------5~----5~---|
E|------------------------------5~----5~--------------|

G|---------------------------------------------------------------------------|
D|---------------------------------------------------------------------------|
A|-7-7-7-7-7-7-7-7-7-7-7-7-7-7-7-7--7777777777777--5-5-77777777777777-5-5----|
E|---------------------------------------------------------------------------|

G|-----------------------------------------------------------------99999-7---|
D|-------------------------------------------------------------------------9-|
A|-7777777777777777-5-5-7777777777777777---------777777777777777-------------|
E|---------------------------------------------------------------------------|

G|---------------------------------------------------------------------------|
D|---------------------------------------------------------------------------|
A|-7777777777777777-5--------------------------------------------------------|
E|---------------------------------------------------------------------------|

| /  slide up
|   slide down
| h  hammer-on
| p  pull-off
| ~  HOLD NOTE
| x  Mute note
===============================================================================
Автор: muzzon