Gitarizm

Гитаризм

Конкурс на лучший кавер
Здесь могла бы быть Ваша реклама!
Хотите узнать как играть на гитаре? Гитаризм — лучший самоучитель гитары для начинающих!

Zz Top - I Thank You


Intro
e|--------------------------------------------------------------------------
B|---------5--------7-----5--------------------------2-----5-----7-----5----
G|---------5--------7-----5--------0--------0--------2-----5-----7-----5----
D|---------5--------7-----5--------0--------0--------2-----5-----7-----5----
A|---0--0-----0--0-----0-----0--0-----0--0-----0--0-----0-----0-----0-----0-
E|--------------------------------------------------------------------------

Riff A
e|---------------------------| e|--------------------------------|
B|---7-7-7--7--5--5----------| B|--------------------------------|
G|---7-7-7--7--5--5----------| G|--------------------------------|
D|-------------------7--5----| D|---------7--7--------7---7------|
A|---------------------------| A|---0--0--------0--0-------------|
E|---------------------------| E|--------------------------------|

Riff B Riff C
e|---------------------------| e|--------------------|
B|---------------------------| B|--------------------|
G|---------------------------| G|------7-------------|
D|---------------------------| D|------7-------------|
A|---0-----------------------| A|---0--7------7--5---|
E|------1--2--2--3--3--4--4--| E|-------------7--5---|

Riff D
E|--------------------------------|
B|--------------------------------|
G|--------------------------------|
D|--------------------------------|
A|---------7--7-------------------|
E|---0--0--------0--0--0--0-------|


Order

Intro X1
Riff A X3
Riff B X1
Riff A X2
Riff C X1
Riff A X3
Riff C X1
Riff A X7
Riff D X1
Riff B X1
(Break)
Riff C X1
Riff A X2
Riff C X1
Riff A X7
Riff D X1
Riff B X1

Finish Out Song With Riff A
Автор: muzzon