Gitarizm

Гитаризм

Конкурс на лучший кавер
Здесь могла бы быть Ваша реклама!
Хотите узнать как играть на гитаре? Гитаризм — лучший самоучитель гитары для начинающих!

Zz Top - I Need You Tonight (табулатура)


----------------------------------------------------------------------------
                             I Need You Tonight - ZZ Top
----------------------------------------------------------------------------
Tabbed by:  SchecterMan71
Email:  pennyankee32@msn.com

Tuning:  Standard

A great blues/rock song to do powerchords too ... I mute all the chords however
I and let some ring out to fit the mood of the song (during the Bridge/Outro)as well as 
a riff to the outro ... enjoy!

Intro: (0:15-0:45) (8x)
e)|---------------------------------|
B)|---------------------------------|
G)|---------------------------------|
D)|-7-7-7-7-5-5-5-7-7-7-7-7-7-7-7-7-|
A)|-5-5-5-5-3-3-3-5-5-5-5-5-5-5-5-5-|
E)|---------------------------------|

Verse I: (0:45-1:05)
e)|---------------------------------|
B)|---------------------------------|
G)|---------------------------------|
D)|-7-7-7-7-5-5-5-7-7-7-7-7-7-7-7-7-|
A)|-5-5-5-5-3-3-3-5-5-5-5-5-5-5-5-5-|
E)|---------------------------------|
    It's three o'clock in the morning 
Автор: muzzon