Gitarizm

Гитаризм

Конкурс на лучший кавер
Здесь могла бы быть Ваша реклама!
Хотите узнать как играть на гитаре? Гитаризм — лучший самоучитель гитары для начинающих!

Zz Top - Heaven Hell Or Houston


[------------------------------------------------------------------------
[--------4-------------------2--------------------1--------------------
[------------5------------------3--------------------2--------------2--
[------5------------------3-------------------2------------------3-----
[--------------------------------------------------------------3---------
[-3--------------1-1-------------------0-0--------------1--------------

[----------------------------------------------------0--0
[--------4--------------------------------------1------0
[------------5----------------4--------------------------
[----5---------------------3------------2---------------
[-----------------------3---------------------------------
[-3---------------1-1-------------0---------------------

verse
[---------------------
[--------------------- repeat till
[--------------------- "island of
[-2----3-4-----3--2 shandaler"
[---------------------
[-0----1-2-----1--0-

[-------------------
[-------------------
[-2---3--4----3-2
[-------------------
[-0---1--2----1-0
[-------------------

chorus

[----3-------4-------0----3
[----4-------5-------1----4
[----5-------6-------2----5
[-----------------------------
[-----------------------------
[-3------4-------0------3---
Автор: muzzon