Gitarizm

Гитаризм

Конкурс на лучший кавер
Здесь могла бы быть Ваша реклама!
Хотите узнать как играть на гитаре? Гитаризм — лучший самоучитель гитары для начинающих!

Zz Top - Gimme All Your Lovin (2 вариант)


Intro:
(x4) (x7)
|-----------|-------------------|---------------|
|*---------*|*-----------------*|-----------4-5-|
|*-R-R-R-R-*|*-3-3-3-3-3-3-3-3-*|-3-3-3-3-3-----|
|-----------|-------------------|---------------|
1 2 3 4 1 & 2 & 3 & 4 & 1 & 2 & 3 & 4
 
Verse:
|-------------------|
|*-----------------*|
|*-3-3-3-3-3-3-3-3-*|
|-------------------|
1 & 2 & 3 & 4 &
Chorus:
(x2)
|-----------------|-----------------|-------------------|
|-----------------|-----------------|*-----------------*|
|-1-1-1-1-1-1-1-1-|-----------------|*-3-3-3-3-3-3-3-3-*| (x2)
|-----------------|-1-1-1-1-1-1-1-1-|-------------------|
1 & 2 & 3 & 4 & 1 & 2 & 3 & 4 & 1 & 2 & 3 & 4 &

Last Verse:
|-------------|
|*-----------*|
|*-3-r-3-3-r-*|
|-------------|
1 2 & 3 4
Автор: muzzon