Gitarizm

Гитаризм

Конкурс на лучший кавер
Здесь могла бы быть Ваша реклама!
Хотите узнать как играть на гитаре? Гитаризм — лучший самоучитель гитары для начинающих!

Zz Top - Burger Man


---------------|-------------|--------------|-----------|-------------|
-6h8--8--------|-----------6-|-6H8-8-8------|-----------|-6H8-8-8-----|
---------------|-------------|--------------|-----------|-------------|
---------5-5h7-|-5-3---5-----|--------------|-5-3-3-53-|-------------|
---------5-5h7-|-5-3---5-----|--------------|-5-3-3-53-|-------------|
---------3-----|-----3-------|--------------|-3-----3---|-------------|
 
\
My
------------|---------------|------------|
------------|-6H8--8--------|------------|
------------|---------------|------------|
-5-3-3-53--|-------5-5---5-|-5-3-3-53--|
-5-3-3-53--|-------5---5---|-5-3-3-53--|
-3----------|---------------|-3-----3----|

\
charcoal's gettin red hot Put your order in
\

my hand Won't ya let me show you what I got
----------|----------------|
-12-13-13-|-------13-13-12-|
-12-12-12-|-------12-12-12-|
-12-14-14-|-------14-14-12-|
----------|----------------|
----------|----------------|

\

sizzlin in the pan
----------|----------------|
-12-13-13-|-------13-13-12-|
-12-12-12-|-------12-12-12-|
-12-14-14-|-------14-14-12-|
----------|----------------|
----------|----------------|

\

Any way you want it baby
---------------|---------------|-8-
-8b10--8b10----|-11----11------|---
---------------|----10---------|---
---------------|---------------|---
---------------|---------------|---
---------------|---------------|---

\

I am your burger man.
|-----------------|------------------|
|-----------------|------------------|
|-----------------|------------------|
|-----------------|------------------|
|-5-5-7-5-5-5-7-5-|-5-5-7-5-5-5-7----|
|-3-3-3-3-3-3-3-3-|-3-3-3-3-3-3-3-12|
<palm mute these two measures>
\

<second verse uses same stuff>
If you need good hot grillin, try my burger stand
If you need a slice of thrillin, I'm the baddest in the land
Any way you want it baby. I am your burger man.


solo:

------------------|--------------|-----------------|----------------|
------------------|--------------|-3---3-----------|----------------|
-6b5p3-5----------|-5-3---5------|---5-3-5---------|-5-3---5----3---|
------------------|-5-3-5-5------|-----------------|-5-3-5-5----3---|
------------------|-3-3-5-3------|-----------------|-3---3-3--3-----|
------------------|--------------|-----------------|----------------|

\

----------------------|----------------|
-14b16---14b--12------|----------------|
----------------------|----------------|
----------------------|-5-3---5--5-3-3-|
----------------------|-5-3---5--5-3-3-|
----------------------|-3---3----3-----|

\

----------------------|----------------|---------------|--------------|
-14b16--14b16-12------|----------------|---------------|--------------|
----------------------|----------------|-5B6P3-5-------|-5P3---5--5-3-|
----------------------|-5-3---5--5-3---|---------------|-5P3---5--5-3-|
----------------------|-5-3---5--5-3---|---------------|-3---3----3---|
----------------------|-3---3----3-----|---------------|--------------|

\

--------------|-------------|-------------------------|------------------------|
--------------|-------------|-------------------------|------------------------|
-5B7B5p3-5----|-(5)3-------|-14b16-14b16-12----------|-(12)10-----14b16------|
--------------|-------------|-------------------------|------------------------|
--------------|-------------|-------------------------|------------------------|
--------------|-------------|-------------------------|------------------------|

\

-------------------|-----------------|-----------------|--------------------|
-------------------|-----------------|-8b10-8b10-------|-11----11-----------|
-14b16--12-12------|----------(12)7-|-----------------|----10--------------|
-------------------|-----------------|-----------------|--------------------|
-------------------|-----------------|-----------------|--------------------|
-------------------|-----------------|-----------------|--------------------|

\

-------------------|----------------|-------------------|-------------------|
-13----13----------|----------------|-8b10-8b10---------|-11----11----------|
----12-------------|----------------|-------------------|----10-------------|
-------------------|----------------|-------------------|-------------------|
-------------------|----------------|-------------------|-------------------|
-------------------|----------------|-------------------|-------------------|

\

-------------------|------11b12-----|
-13----13----------|----------------|
----12-------------|----------------|
-------------------|----------------|
-------------------|----------------|
-------------------|----------------|
Автор: muzzon