Gitarizm

» Тексты и аккорды к песням для гитары » Zz Top - Brown Sugar bass (табулатура)

Гитаризм

Конкурс на лучший кавер
Здесь могла бы быть Ваша реклама!
Хотите узнать как играть на гитаре? Гитаризм — лучший самоучитель гитары для начинающих!

Zz Top - Brown Sugar bass (табулатура)


-------------------------------------------------------------------------------
			     SONG NAME - Band Name
-------------------------------------------------------------------------------

Come in around 1:42

Main Riff
G|---------------------------------------------------------------------------|
D|---------------8-----------------------------------------------------------|
A|-8-8---11-8h11-------------------------------------------------------------|
E|---------------------------------------------------------------------------|

Verse
G|---------------------------------------------------------------------------|
D|---------------------------------------------------------------------------|
A|--8-8-11-11-8-8-11-8-8-8-11-11-8-8-11--------------------------------------|
E|---------------------------------------------------------------------------|

Chorus
G|---------------------------------------------------------------------------|
D|---------------------------------------------------------------------------|
A|---------------------------------------------------------------------------|
E|--8-8-8-8-8-8-8-8-6-6-6-6-6-6-6-6------------------------------------------|

Song Order-
Main riff X4
Verse x1
mainriff x2
verse x1
main riff x2
chorus x1

you just keep repeating this order even during the solo

Hope this helps
Enjoy!
Автор: muzzon