Gitarizm

» Тексты и аккорды к песням для гитары » Zz Top - Blue Jean Blues bass (табулатура)

Гитаризм

Конкурс на лучший кавер
Здесь могла бы быть Ваша реклама!
Хотите узнать как играть на гитаре? Гитаризм — лучший самоучитель гитары для начинающих!

Zz Top - Blue Jean Blues bass (табулатура)


ZZ top
Blue jean blues

Intro
E---2-3-------2---|
A--------0-2----2-|
D-----------------|
G-----------------|

main riff
E----3-------2----|
A--------0-2----2-|
D-----------------|
G-----------------|
riff 2
E-3--2-0--------|
A-----------2---|
D-------------2-|
G---------------|
riff 3
E-3-2----------------|
A-------2------2---2-|
D---------2------2---|
G--------------------|

Heres the order for the riffs:

Intro (1 time)
Main riff (play 7 times)
Riff 2 (2 times)
Main riff (2times)
Riff 3 then main riff (4 times)
Riff 2 (2 times)
Main riff (2 times)
Riff 3 (1 time)
Main riff (16 times)
Автор: muzzon