Gitarizm

» Тексты и аккорды к песням для гитары » Zz Top - Beer Drinkers And Hell Raisers bass (табулатура)

Гитаризм

Конкурс на лучший кавер
Здесь могла бы быть Ваша реклама!
Хотите узнать как играть на гитаре? Гитаризм — лучший самоучитель гитары для начинающих!

Zz Top - Beer Drinkers And Hell Raisers bass (табулатура)


ZZ Top 
Beer Drinkers and Hell Raisers

Intro
G|-------------------------------------3------------------------------|
D|---------------------------3h5-3h5p3--------------------------------|
A|-------------------------35-----------------------------------------|
E|3333333333333333333333333-------------------------------------------|

Verse 1 
If You See Me Walking Down The Line
G|--------------------------------------------------------------------|
D|-------------------------53-----------------------------------------|
A|--------------------------------------------------------------------|
E|3333333333333333333333333-------------------------------------------|

Chorus 
Beer drinkers and hell raisers .. 
G|------------------------------------------------------------------3-|
D|---------------------------------------------------------3h5-3h5p3--|
A|3333333333333333----------------555555553333333--------35-----------|
E|----------------3333333333333333---------------33333333-------------|

Verse 2
The crowd gets loud when the band gets right, 
G|--------------------------------------------------------------------|
D|-------------------------53-----------------------------------------|
A|--------------------------------------------------------------------|
E|3333333333333333333333333-------------------------------------------|
 
Chorus 
Beer drinkers and hell raisers .. 
G|------------------------------------------------------------------3-|
D|---------------------------------------------------------3h5-3h5p3--|
A|3333333333333333----------------555555553333333--------35-----------|
E|----------------3333333333333333---------------33333333-------------|

Solo
G|--------------------------------------------------------------------|
D|--------------------------------------------------------------------|
A|--------------------------------------------------------------------|
E|3333333333333333333333333-------------------------------------------|

G|------------------------------------------------------------------3-|
D|---------------------------------------------------------3h5-3h5p3--|
A|3333333333333333----------------555555553333333--------35-----------|
E|----------------3333333333333333---------------33333333-------------|

G|--------------------------------------------------------------------|
D|--------------------------------------------------------------------|
A|--------------------------------------------------------------------|
E|3333333333333333333333333-------------------------------------------|

G|------------------------------------------------------------------3-|
D|---------------------------------------------------------3h5-3h5p3--|
A|3333333333333333----------------555555553333333--------35-----------|
E|----------------3333333333333333---------------33333333-------------|

Verse 3
The joint was jumpin' like a cat on hot tin
G|--------------------------------------------------------------------|
D|-------------------------53-----------------------------------------|
A|--------------------------------------------------------------------|
E|3333333333333333333333333-------------------------------------------|

Chorus 
Beer drinkers and hell raisers .. 
G|------------------------------------------------------------------3-|
D|---------------------------------------------------------3h5-3h5p3--|
A|3333333333333333----------------555555553333333--------35-----------|
E|----------------3333333333333333---------------33333333-------------|

Solo
G|--------------------------------------------------------------------|
D|--------------------------------------------------------------------|
A|--------------------------------------------------------------------|
E|3333333333333333333333333-------------------------------------------|
Автор: muzzon