Gitarizm

Гитаризм

Конкурс на лучший кавер
Здесь могла бы быть Ваша реклама!
Хотите узнать как играть на гитаре? Гитаризм — лучший самоучитель гитары для начинающих!

Zwan - Jesus (табулатура)


----------------------------------------------------------------------------------|
-----2---------------------2------------------------------------------------------|
-------2--------0--2-----2----2---------0---2-------------------------------------|
-------------2--------0--------------2--------------------------------------------|
----------0-----------------------0-----------------------------------------------|
----------------------------------------------------------------------------------|


--------------------------------------------------------------------------------------|
--------------------------------------------------------------------------------------|
----2-------0----------2--------0-----------------------------------------------------|
-------2-------0-----------2--------0-------------------------------------------------|
-------------------0--------------------0---------------------------------------------|
--------------------------------------------------------------------------------------|

---------------------------------------------------------------------------------|
------2^-------------------2^----------------------------------------------------|
-----------0--------------------0------------------------------------------------|
---------------4--------------------4--------------------------------------------|
--0--------------------0---------------------------------------------------------|
---------------------------------------------------------------------------------|
Автор: muzzon