Gitarizm

» Тексты и аккорды к песням для гитары » Zwan - Glorious (табулатура)

Гитаризм

Конкурс на лучший кавер
Здесь могла бы быть Ваша реклама!
Хотите узнать как играть на гитаре? Гитаризм — лучший самоучитель гитары для начинающих!

Zwan - Glorious (табулатура)




Date: Sun, 17 Nov 2002 02:09:21 -0000
From: Susan Strong 
Subject: z/zwan/glorious.tab

Subject: Glorious   
Artist : Zwan
Release: None (As Yet)
Author : Iain Strong
Tuning : Standard
 
This is an awesome song from Billy Corgan's new band, Zwan
(similar to Untitled, in a way). I have tabbed this from a
poor quality live recording, so this version, hardly precise 
anyway, may differ from the eventual studio release.
 
 
Intro/1st Part Of Verse/Chorus (W/Distortion):
 
x--------0-------------------------x
x--4---4---4-----------2-----------x
x----4-------4---4---2---2-----6b--x
x--------------4-------------6-----x
x--2---------------0-------4-------x
x----------------------------------x
 
 
2nd Part Of Verse (W/Distortion):
 
x-----------------------------------x
x-----------------------------------x
x--4-4-4-4-4-4-4-42-2-2-2/6-6-6-6--x
x--4-4-4-4-4-4-4-42-2-2-2/6-6-6-6--x
x--2-2-2-2-2-2-2-2-0-0-0/4-4-4-4--x
x-----------------------------------x
 
 
Bridge:
 
(Lead Guitar)
x--------------------x
x---------9b---------x
x--8-9-11----11~9~~--x
x--------------------x
x--------------------x
x--------------------x
 
(Rhythm Guitar)
x--------------------x
x--------------------x
x--8/9/11/13b119~--x
x--------------------x
x--6/7/9~/11b9~7~--x
x--------------------x
 
 
Chorus (Guitars tacet for first few bars):
 
Same as 2nd part of verse, with this lead riff throughtout:
 
x------------------------------12-------12-----14p12---x
x-----16-------16-----------------12-------12----------x
x--------16-------16----16-----------------------------x
x--------------------16------13------13----------------x
x--14-------14-----------------------------------------x
x------------------------------------------------------x
 
 
Bridge (From Chorus To Verse/Outro) Part 1:
 
x-------------------x
x-------------------x
x--4-4-4-4-4-42/4--x
x--4-4-4-4-4-42/4--x
x--2-2-2-2-2-2/2--x
x-------------------x
 
 
Part 2 (W/Heavy Distortion):
 
x-------------------x
x-------------------x
x--4-4-4-4-4-4/64--x
x--4-4-4-4-4-4/64--x
x--2-2-2-2-2-2/42--x
x-------------------x
 
 
Outro/Solo:
 
Simple variations of verse/chorus riffs at a slower tempo.
 
I'm afraid I'm not exactly sure of the solo, but here's
a vague idea anyway...:
 
x-----------------------------------------x
x--16-17-16h17p16-14-12b------------------x
x-----------------------14b16-16b18-16~~--x
x-----------------------------------------x
x-----------------------------------------x
x-----------------------------------------x Etc, etc.....(Improvise )
 
 
End On:
 
x-----x
x-----x
x--4--x
x--4--x
x--2--x
x-----x
 
 
This file is all my own work and represents my interpretation of the
song.


Автор: muzzon