Gitarizm

» Тексты и аккорды к песням для гитары » Zutons - Zuton fever (табулатура)

Гитаризм

Конкурс на лучший кавер
Здесь могла бы быть Ваша реклама!
Хотите узнать как играть на гитаре? Гитаризм — лучший самоучитель гитары для начинающих!

Zutons - Zuton fever (табулатура)




Date: Sat, 05 Jun 2004 20:02:38 +0000
From: s carswell 
Subject: z/zutons/zuton_fever.tab

Band: The Zutons
Song: Zuton Fever
Album: Who Killed the Zutons

Guit 1:
e:-----------------------------------------------------------------------
B:-----------------------------------------------------------------------
G:-----------------------------------------------------------------------
D:4---2-4-2-4----2-4-2--------------2---------2--------------------------
A:---------------------4-2-4----2-4---4---2-4---4--3----3---3------3---4-
E:----------------------------------------------------2---2------2-------

e:-----------
B:-----------
G:-----------
D:---------2-
A:-2-4-2-4---
E:-----------

Play that riff again, while Guit 2 plays (with slide):

e:-----------------------------------------------------------------------
B:-5-2----------5-2------------------------------5-7-------------------
G:-5-2----------5-2-------------2/-5-------------5-6----------2/-5-----
D:-----------------------------------------------------------------------
A:-----------------------------------------------------------------------
E:-----------------------------------------------------------------------
                                                             Vocals enter

Later on, when the saxophone comes in, Guitar 1 plays something like this:
e:-----------------------------------------------------------------------
B:-7--5-----7--5-----7--5-----7------------------------------------------
G:-------6--------6--------6--6-----Sax fill----------Repeat-------------
D:-6--6--6--6--6--6--6--6--6--6------------------------------------------
A:-4--4--4--4--4--4--4^Ч-4--4--4------------------------------------------
E:-----------------------------------------------------------------------

Even later on, there's some weird wammy bar stuff.  God Know's what they 
play there.

Solo.  God Know's that as well.

Ending:
e:---------------------2--------------------
B:----------------2-5-----5--2--------------
G:----------2--4---------------4---2--------
D:----2--4------------------------------4---
A:-4----------------------------------------
E:------------------------------------------

This is all my own work.

Please feel free to add any corrections, or any additions.

Stew C

_________________________________________________________________


Автор: muzzon