Gitarizm

» Тексты и аккорды к песням для гитары » Zutons - Valerie bass (табулатура)

Гитаризм

Конкурс на лучший кавер
Здесь могла бы быть Ваша реклама!
Хотите узнать как играть на гитаре? Гитаризм — лучший самоучитель гитары для начинающих!

Zutons - Valerie bass (табулатура)


No one had the bass tab up, so i found this one and thought i'd put it up here.

ENJOY

Intro
Verse
Pre Chorus
Chorus
Verse x 2
Pre Chorus
Chorus
Quiet Bridge (No bass till end as shown)
Pre Chorus
Chorus


Intro (when drums come in)

E|------------------|
B|------------------|
G|------------------|
D|------------------|
A|1313131313131313--
E|------------------

Verse (after the drums)

E|------------------------------------------------------|
B|------------------------------------------------------|
G|------------------------------------------------------|
D|------------------------------------------------------|
A|--6--66--6----6--66--6---68888--88--8----68888--88--8-|
E|------------------------------------------------------|

E|-------------------------------------------------------|
B|-------------------------------------------------------|
G|-------------------------------------------------------|
D|-------------------------------------------------------|
A|-8-6--66--6----6--66--6---68888--88--8----68888--88--8-|
E|-------------------------------------------------------|

(Pre-Chorus)

E|---------------------------------------------------|
B|---------------------------------------------------|
G|---------------------------------------------------|
D|---------------------------------------------------|
A|---------------------------------------------------|
E|4-4-4-4-4-4-4-4-3-3-3-3-3-3-3-3--------------------|   (x4) and then

E|---------------------------------------------------|
B|---------------------------------------------------|
G|---------------------------------------------------|
D|---------------------------------------------------|
A|1-1-1-1-1-1-1-1-1-1-1-1-1-1-1-1--------------------|
E|---------------------------------------------------|

(Chorus)

E|---------------------------------------------------|
B|---------------------------------------------------|
G|---------------------------------------------------|
D|--------------8--10810---------------8--10810------|
A|-6--------10------------6--------10----------------|
E|---------------------------------------------------|

E|---------------------------------------------------|
B|---------------------------------------------------|
G|---------------------------------------------------|
D|--------------8--10810---------------8--10810------|
A|-8--------10------------8--------10----------------|
E|---------------------------------------------------|

(Quiet Bridge - at the end)
E|------------------------------|
B|------------------------------|
G|------------------------------|
D|------------------------------|
A|-68888--88--8----68888--88--8-|
E|------------------------------|
Автор: muzzon