Gitarizm

» Тексты и аккорды к песням для гитары » Zutons - Take Your Mama (табулатура)

Гитаризм

Конкурс на лучший кавер
Здесь могла бы быть Ваша реклама!
Хотите узнать как играть на гитаре? Гитаризм — лучший самоучитель гитары для начинающих!

Zutons - Take Your Mama (табулатура)


-------------------------------------------------------------------------------
                             Take Your Mama (Radio 1 Live Lounge Version) - The Zutons
-------------------------------------------------------------------------------
Tabbed by: Tundi

Tuning: Standard

e|--5--5----5----5--5---5-5-5-5---------------------------------------------------------|
B|--5--5----5----5--5---5-5-5-5---------------------------------------------------------|
G|--6--6----6----6--6---6-6-7-6---------------------------------------------------------|
D|--7--7----7----7--7---7-7-7-7---------------------------------------------------------|
A|--7--7----7----7--5---7-7-7-7---------------------------------------------------------|
E|--5--5----5----5--5---5-5-5-5---------------------------------------------------------|

e|--3--3----3----3--3---3-3-3-3-------------------------------------------------------|
B|--3--3----3----3--3---3-3-3-3-------------------------------------------------------|
G|--4--4----4----4--4---4-4-5-4-------------------------------------------------------|
D|--5--5----5----5--5---5-5-5-5-------------------------------------------------------|
A|--5--5----5----5--5---5-5-5-5-------------------------------------------------------|
E|--3--3----3----3--3---3-3-3-3-------------------------------------------------------|

e|--2--2----2----2--2---2-2-2-2-------------------------------------------------------|
B|--3--3----3----3--3---3-3-3-3-------------------------------------------------------|
G|--4--4----4----4--4---4-4-4-4-------------------------------------------------------|
D|--4--4----4----4--4---4-4-4-4-------------------------------------------------------|
A|--2--2----2----2--2---2-2-2-2-------------------------------------------------------|
E|--2--2----2----2--2---2-2-2-2-------------------------------------------------------|

e|--5--5----5----5--5---5-5-5-5-------------------------------------------------------|
B|--5--5----5----5--5---5-5-5-5-------------------------------------------------------|
G|--6--6----6----6--6---6-6-6-6-------------------------------------------------------|
D|--7--7----7----7--7---7-7-7-7-------------------------------------------------------|
A|--7--7----7----7--7---7-7-7-7-------------------------------------------------------|
E|--5--5----5----5--5---5-5-5-5-------------------------------------------------------|
Автор: muzzon