Gitarizm

» Тексты и аккорды к песням для гитары » Zutons - Remember Me (табулатура)

Гитаризм

Конкурс на лучший кавер
Здесь могла бы быть Ваша реклама!
Хотите узнать как играть на гитаре? Гитаризм — лучший самоучитель гитары для начинающих!

Zutons - Remember Me (табулатура)


|-------------------------------------------------------------------|
Remember Me - by the Zutons
|-------------------------------------------------------------------|

Artist: The Zutons
Title: Remember Me
Album: Who Killed.....the Zutons?

Members
Abi Harding - saxophone
Boyan Chowdhury - guitars
David McCabe - vocals, guitar
Russell Pritchard - bass
Sean Payne - drums


Intro

e|--0-2--02---0-2--02-|
B|--1-3--13---1-3--13-|
G|--0-2--02---0-2--02-|    x2
D|--2-0--20---2-0--20-|
A|--3----3----3----3--|
E|--------------------|


Verse 1

         (G)                                     (Em)
e|--------3---------------------------------------0-|
B|--------0---------------------------------------0-|
G|--------0---------------------------------------0-|
D|--------0---------------------------------------2-|
A|--------2---------------------------------------2-|
E|--------3---------------------------------------0-|
  Well we used to be the best of friends, and we used to hang around

  (G)                                                  (Em)
e|-3----------------------------------------------------0-|
B|-0----------------------------------------------------0-|
G|-0----------------------------------------------------0-|
D|-0----------------------------------------------------2-|
A|-2----------------------------------------------------2-|
E|-3----------------------------------------------------0-|
  Now I always see you with your new girlfriend on the sunny side of town

         (G)                                                    (Em)
e|--------3------------------------------------------------------0-|
B|--------0------------------------------------------------------0-|
G|--------0------------------------------------------------------0-|
D|--------0------------------------------------------------------2-|
A|--------2------------------------------------------------------2-|
E|--------3------------------------------------------------------0-|
Oh your body is the same and your face isn
Автор: muzzon