Gitarizm

» Тексты и аккорды к песням для гитары » Zutons - Pressure Point bass (табулатура)

Гитаризм

Конкурс на лучший кавер
Здесь могла бы быть Ваша реклама!
Хотите узнать как играть на гитаре? Гитаризм — лучший самоучитель гитары для начинающих!

Zutons - Pressure Point bass (табулатура)


-----------------------------------------------------------------------------
                       Pressure Point - The Zutons
-----------------------------------------------------------------------------

Tabbed By: Jasgor9
Tuning: Standard (E,A,D,G)

This tab isn't perfect, but it's my first try to
tab this song. Please comment on anything that
needs fixed. Thanks!

Verse
G|--------------------------------------------------------------------------|
D|--------------------------------------------------------------------------|
A|--------------------------------------------------------------------------|
E|-5h7----------------------------------------------------------------------|

Chorus
G|-------------------------4~~~~~~~-----------------------------------------|
D|--------------------------------------------------------------------------|
A|-------5~-5-5-5-55-5-4-2--------------------------------------------------|
E|-0h5h6--------------------------------------------------------------------|

Solo (x1)
G|---------------------4-4-----4-4------------------------------------------|
D|--------------------------------------------------------------------------|
A|-55555555555555552-2-----2-2----------------------------------------------|
E|--------------------------------------------------------------------------|

     (x1)
G|--------------------------------------------------------------------------|
D|------------------------0-2-333332-0--------------------------------------|
A|-5555555555555555--2--2--------------0-2----------------------------------|
E|--------------------------------------------------------------------------|

     (This is tied in with the ending, and a combination of both
      are played until the end of the song.)
G|--------------------------------------------------------------------------|
D|--------------------------------------------------------------------------|
A|-2-2-2-0-2222222-0--------------------------------------------------------|
E|--------------------------------------------------------------------------|

Ending (Play this until the end of the song)
G|--------------------------------------------------------------------------|
D|--------------------------------------------------------------------------|
A|-2222222222222222---------------------------------------------------------|
E|--------------------------------------------------------------------------|

Legend
=============================================================================
| /  slide up
|   slide down
| h  hammer-on
| p  pull-off
| ~  vibrato
| +  harmonic
| x  Mute note
=============================================================================
Автор: muzzon