Gitarizm

» Тексты и аккорды к песням для гитары » Zutons - Its The Little Things We Do bass (табулатура)

Гитаризм

Конкурс на лучший кавер
Здесь могла бы быть Ваша реклама!
Хотите узнать как играть на гитаре? Гитаризм — лучший самоучитель гитары для начинающих!

Zutons - Its The Little Things We Do bass (табулатура)


-------------------------------------------------------------------------------
			     It's The Little Things We Do- The Zutons
-------------------------------------------------------------------------------

Tabbed By :Grimjaw


Tuning:EADG (nORMAL)

rEALL EASY TAB. LISTEN TO THE RYTHM ON THE SONG AND IT IS EASY TO PICK UP. HAVE THE BASS 
REALLY TREBLE (HELPS IF YOU HAVE A VERY LOW ACTION BASS) AND SLIGHTLY PALM MUTE THE 
(LIGHTLY HOLD YOUR PALM OVER THE STRINGS BUT LET THEM VIBRATE). VERY FUNNY LYCRICS IF YOU LISTEN.

vERSE 1 (WAIT 2 BARS UNTIL YOU COME IN) (0.09)

G|-------------------------|
D|-------------------------|
A|-11-11-10-10-8-8-5-5-3-5-|X6
E|-------------------------|

G|-------------------------------------|
D|-------------------------------------|
A|-11-11-10-10-8-8-5-5-3-5-5-5-5-5-5-5-|X12
E|-------------------------------------|

CHORUS (0.58)
G|---------------------------------------|
D|---------------------------------------|
A|--------------------5--5-5-5--5--5-5-5-|X2
E|-5--5-5-5--5--5-5-5--------------------|

G|---------------------------------------|
D|---------------------------------------|
A|-6--6-6-6--6--6-6-6--------------------|X2
E|--------------------6--6-6-6--6--6-6-6-|

vERSE 2 (1.18)
G|---------------------------------------------|
D|---------------------------------------------|
A|-11-11-10-10-8-8-5-5-3-5--5--5-5-5--5--5-5-5-|X4
E|---------------------------------------------|

cHORUS (1.38)
G|---------------------------------------|
D|---------------------------------------|
A|--------------------5--5-5-5--5--5-5-5-|X2
E|-5--5-5-5--5--5-5-5--------------------|

G|---------------------------------------|
D|---------------------------------------|
A|-6--6-6-6--6--6-6-6--------------------|
E|--------------------6--6-6-6--6--6-6-6-|

G|---------------------------------------|
D|---------------------------------------|
A|-6--6-6-6--6--6-6-6--------------------|
E|---------------------12121212-12121212-|


G|---------------------|
D|---------------------|
A|-5-5-5-5-5-5-5-0-3-0-|X7
E|---------------------|

G|---------------------|
D|---------------------|
A|-5-5-5-5-5-5-5-/16---|
E|---------------------|

G|---------------------------------------|
D|---------------------------------------|
A|------------------------(PAUSE)--------|X2
E|-5--5-5-5--5--5-5-5--------------------|

G|---------------------------------------|
D|---------------------------------------|
A|-6--6-6-6--6--6-6-6--------------------|
E|----------------------(PAUSE)----------|

G|---------------------------------------|
D|---------------------------------------|
A|-6--6-6-6--6--6-6-6--------------------|
E|--------------------6--6-6-6--6--6-6-6-|

G|---------------------------------------|
D|---------------------------------------|
A|--------------------5--5-5-5--5--5-5-5-|X2
E|-5--5-5-5--5--5-5-5--------------------|
                                              kEEP ON PLAYING UNTIL THE END.
G|---------------------------------------|
D|---------------------------------------|
A|-6--6-6-6--6--6-6-6--------------------|X2
E|--------------------6--6-6-6--6--6-6-6-|

| /  slide up
|   slide down
| h  hammer-on
| p  pull-off
| ~  vibrato
| +  harmonic
| x  Mute note
===============================================================================
Автор: muzzon