Gitarizm

» Тексты и аккорды к песням для гитары » Zuckerbaby - Heavy (табулатура)

Гитаризм

Конкурс на лучший кавер
Здесь могла бы быть Ваша реклама!
Хотите узнать как играть на гитаре? Гитаризм — лучший самоучитель гитары для начинающих!

Zuckerbaby - Heavy (табулатура)




Date: Wed, 08 Apr 1998 21:27:54 -0700
From: Adam Bishop 
Subject: z/zuckerbaby/heavy.tab



Heavy - Zuckerbaby

Tabbed by Adam Bishop

I am pretty sure this is how it goes.  Most of the tab is probably
messed up 
in lots of places, with notes missing or extra notes or whatever, but
this 
sounds really good.

Tune down 1/2 step 

Am - x02210
D  - xx0232
Dm - xx0231
F  - xx3211
F2 - xxx565
C  - x32010

One guitar plays the chords, and another plays the riffs

Intro:
Am         D    Dm
Am         D    Dm

     Am     C      D         F2      Am     C      D         F2
Eb|------------------------------8-------------------------------8-7-5-3-2-1-0~
Bb|-------------8------7s10--7h8----------------8------7s10--7h8---------------
Gb|--2h3s5--4h5----6h7---------------2h3s5--4h5----6h7-------------------------
Db|----------------------------------------------------------------------------
Ab|----------------------------------------------------------------------------
Eb|----------------------------------------------------------------------------

Verse 1:
Am   C          D        Dm
Everyday when I ...
    Am    C                D             Dm
The butterflies ...

    Am              C               D            Dm
Eb|----------------------------------------------------------------
Bb|-10-10-10-10-----8-8-8-8---------7-7-7-7------6-6-6-6-----------
Gb|----------------------------------------------------------------
Db|----------------------------------------------------------------
Ab|----------------------------------------------------------------
Eb|----------------------------------------------------------------
    Take me yes and ...

    Am           C        D        Dm
Eb|----------------------------------------
Bb|-10-10-10-10--8-8-8-8--7-7-7-7--6-6-6-6-
Gb|----------------------------------------
Db|----------------------------------------
Ab|----------------------------------------
Eb|----------------------------------------

Chorus:
    C               D                        Am            F  
Eb|--------------------0--5-5br-5--3-2-1-0--3-3b--1-1b--0----------------------
Bb|-1-1-1--1h3p1--0----------------------------------------3--3b-3b-3b-3b-1-0--
Gb|-----------------0---------------------------------------------------------0
Db|----------------------------------------------------------------------------
Ab|----------------------------------------------------------------------------
Eb|----------------------------------------------------------------------------
    So heavy some   ...

    C               D                        Am            F  
Eb|--------------------0--5-5br-5--3-2-1-0--3-3b--1-1b--0----------------------
Bb|-1-1-1--1h3p1--0----------------------------------------3--3b-3b-3b-3b-1-0--
Gb|-----------------0---------------------------------------------------------0
Db|----------------------------------------------------------------------------
Ab|----------------------------------------------------------------------------
Eb|----------------------------------------------------------------------------
    So heavy some   ...

     Am     C      D         F2      Am     C      D         F2
Eb|------------------------------8-------------------------------8-7-5-3-2-1-0~
Bb|-------------8------7s10--7h8----------------8------7s10--7h8---------------
Gb|--2h3s5--4h5----6h7---------------2h3s5--4h5----6h7-------------------------
Db|----------------------------------------------------------------------------
Ab|----------------------------------------------------------------------------
Eb|----------------------------------------------------------------------------

Verse 2:
Am           C          D        Dm
She left her ...
Am    C              D         Dm
Yesterday was ...

    Am              C         D              Dm
Eb|----------------------------------------------------------------
Bb|-10-10-10-10-----8-8-8-8---7-7-7-7--------6-6-6-6---------------
Gb|----------------------------------------------------------------
Db|----------------------------------------------------------------
Ab|----------------------------------------------------------------
Eb|----------------------------------------------------------------
    Between sips of gasoline  ...

    Am           C        D        Dm
Eb|----------------------------------------
Bb|-10-10-10-10--8-8-8-8--7-7-7-7--6-6-6-6-
Gb|----------------------------------------
Db|----------------------------------------
Ab|----------------------------------------
Eb|----------------------------------------

Chorus:
    C               D                        Am            F  
Eb|--------------------0--5-5br-5--3-2-1-0--3-3b--1-1b--0----------------------
Bb|-1-1-1--1h3p1--0----------------------------------------3--3b-3b-3b-3b-1-0--
Gb|-----------------0---------------------------------------------------------0
Db|----------------------------------------------------------------------------
Ab|----------------------------------------------------------------------------
Eb|----------------------------------------------------------------------------
    So heavy some   ...

    C               D                        Am            F  
Eb|--------------------0--5-5br-5--3-2-1-0--3-3b--1-1b--0----------------------
Bb|-1-1-1--1h3p1--0----------------------------------------3--3b-3b-3b-3b-1-0--
Gb|-----------------0---------------------------------------------------------0
Db|----------------------------------------------------------------------------
Ab|----------------------------------------------------------------------------
Eb|----------------------------------------------------------------------------
    So heavy some   ...

Solo: Am  C  D  F2 four times over solo
Eb|-----------------------3h5-3h5-3h5-3p2-0------------------------------------
Bb|--------------------5---------------------6-8-8b-8b-8b-8-8-8p6-5------------
Gb|-5-7b--7b-7b-7b-5-4---------------------------------------------------------
Db|----------------------------------------------------------------------------
Ab|----------------------------------------------------------------------------
Eb|----------------------------------------------------------------------------

Eb|----------------------------------------------------------------------------
Bb|-------------------------------5-5-6h8-8b-8b-6-10-8--10b-10b-8--------------
Gb|-5h7-7b-7b-5--5-5-5-5-7b-7b-5-----------------------------------------------
Db|----------------------------------------------------------------------------
Ab|----------------------------------------------------------------------------
Eb|----------------------------------------------------------------------------

Eb|-10-8~~-10b10b10b10b10b10b10-8----------------------------------------------
Bb|-------------------------------10-10~~~~~~~~~~~~~~~~~~~~~~~~~~~~~~~~~~~~~~~~
Gb|----------------------------------------------------------------------------
Db|----------------------------------------------------------------------------
Ab|----------------------------------------------------------------------------
Eb|----------------------------------------------------------------------------

Verse 3: (bass, with guitar feedback from solo)
Gb|------------------------------------------
Db|------------------------------------------
Ab|------------------------------------------
Eb|-5-5-5-5--3-3-3-3--2-2-2-2--------1-1-1-1-
    Climb a  wall so ..

Gb|------------------------------------------
Db|------------------------------------------
Ab|------------------------------------------
Eb|-5-5-5-5-----3-3-3-3----2-2-2-2---1-1-1-1-
    Everybody's traffic ...

    Am           C                   D              Dm
Eb|-------------------------------------------------------------------
Bb|-10-10-10-10--8-8-8-8-------------7-7-7-7--------6-6-6-6-----------
Gb|-------------------------------------------------------------------
Db|-------------------------------------------------------------------
Ab|-------------------------------------------------------------------
Eb|-------------------------------------------------------------------
   Take me yes I don't ...

    Am           C        D        Dm
Eb|----------------------------------------
Bb|-10-10-10-10--8-8-8-8--7-7-7-7--6-6-6-6-
Gb|----------------------------------------
Db|----------------------------------------
Ab|----------------------------------------
Eb|----------------------------------------

Chorus:
    C               D                        Am            F  
Eb|--------------------0--5-5br-5--3-2-1-0--3-3b--1-1b--0----------------------
Bb|-1-1-1--1h3p1--0----------------------------------------3--3b-3b-3b-3b-1-0--
Gb|-----------------0---------------------------------------------------------0
Db|----------------------------------------------------------------------------
Ab|----------------------------------------------------------------------------
Eb|----------------------------------------------------------------------------
    So heavy some   ...

    C               D                        Am            F  
Eb|--------------------0--5-5br-5--3-2-1-0--3-3b--1-1b--0----------------------
Bb|-1-1-1--1h3p1--0----------------------------------------3--3b-3b-3b-3b-1-0--
Gb|-----------------0---------------------------------------------------------0
Db|----------------------------------------------------------------------------
Ab|----------------------------------------------------------------------------
Eb|----------------------------------------------------------------------------
    So heavy some   ...

    C               D                        Am            F  
Eb|--------------------0--5-5br-5--3-2-1-0--3-3b--1-1b--0----------------------
Bb|-1-1-1--1h3p1--0----------------------------------------3--3b-3b-3b-3b-1-0--
Gb|-----------------0---------------------------------------------------------0
Db|----------------------------------------------------------------------------
Ab|----------------------------------------------------------------------------
Eb|----------------------------------------------------------------------------
    So heavy some   ...

    C               D                        Am            F  
Eb|--------------------0--5-5br-5--3-2-1-0--3-3b--1-1b--0----------------------
Bb|-1-1-1--1h3p1--0----------------------------------------3--3b-3b-3b-3b-1-0--
Gb|-----------------0---------------------------------------------------------0
Db|----------------------------------------------------------------------------
Ab|----------------------------------------------------------------------------
Eb|----------------------------------------------------------------------------
    So heavy some   ...


The end is the chorus riff again, then the solo starts again and it
begins 
to fade.


Автор: muzzon