Gitarizm

» Тексты и аккорды к песням для гитары » Zox - Thirsty bass (табулатура)

Гитаризм

Конкурс на лучший кавер
Здесь могла бы быть Ваша реклама!
Хотите узнать как играть на гитаре? Гитаризм — лучший самоучитель гитары для начинающих!

Zox - Thirsty bass (табулатура)


Thirsty by Zox
standard tuning



INTRO
-----9----9---------------------------------------------------------
-----------------9------9------10-----10-----7----7-----------------
--7----7------------------------------------------------------------
--------------7-----7-------8------8------5----5--------------------



----9------9------------------------------------------------------------
-------------------9-----9-------10-----10-----12------12---------------
--7-----7---------------------------------------------------------------
----------------7-----7------8-------8-----10------10-------------------



-----9----9-----------------------------------------------------------
-----------------9-----9------10-----10-----7-----7-------------------
--7----7--------------------------------------------------------------
--------------7-----7-------8-----8-------5----5----------------------



-----7----7------11----11------12----12-----11----11--------------
------------------------------------------------------------------
--9----9-------9-----9------10----10------9-----9-----------------
------------------------------------------------------------------



VERSE
--------------------------------------------------------------------
--------------------------------------------------------------------
--77-----------------------77-----------77--------------------------
------7777---88----5555----------7878--------7878-------------------
REPEAT

CHORUS
------------------------------------------------------------------------
------------------------------------------------------------------------
------------------------------------------------------------------------
--77777777----88888888----7-7-7-7-7-7-7-7--8-8-8-8-8--10-10-10-10-------
BACK TO BEGINNING 
Автор: muzzon