Gitarizm

» Тексты и аккорды к песням для гитары » Zox - The Wait Part Ii (табулатура)

Гитаризм

Конкурс на лучший кавер
Здесь могла бы быть Ваша реклама!
Хотите узнать как играть на гитаре? Гитаризм — лучший самоучитель гитары для начинающих!

Zox - The Wait Part Ii (табулатура)


Great guys. Great music.

Verse:
    F         Dm
E|-----------------------------|
B|----1----1----3----3---------|
G|--2--2-2--2-2--2-2-----------|
D|-3-3--3-3--0-0--0-0---x2-----|
A|-----------------------------|
E|-----------------------------|
     Bb      F         C
E|----------------------------------------|
B|----3----3----1----1----1----1---1---1--|
G|--3--3-3----2--2-2----0--0-0---0---0----|
D|---3----3----3----3----2----2---2---2---|
A|-1----1--------------3----3---3---3-----|
E|-----------1----1-----------------------|

Chorus:
     F   C   G     Am
E|------------------------|
B|----1----1----3----1----|
G|--2--2-0--0-0--0-2------|
D|---3----2----0----2-----|
A|------3---------0-------|
E|-1---------3------------|

Postchorus:
    Bb      C#   C
E|------------------------|
B|----3----3---6----5-----|
G|--3--3-3---6--6-5--5----|
D|---3----3---6----5------|
A|-1----1---4----3--------|
E|------------------------|

Bridge: (strumming)
    F   C  Dm Bb
E|--1------1------------------------|
B|--1---1--3--3---------------------|
G|--2---0--2--3---------------------|
D|--3---2--0--3---------------------|
A|--3---3-----1---------------------|
E|--1-------------------------------|

Verse:
Too cold to call it summer anymore
They took down all the yellow lights at Market Street and 4th
I left the plastic furniture you put out in the shade under the porch
It
Автор: muzzon