Gitarizm

Гитаризм

Конкурс на лучший кавер
Здесь могла бы быть Ваша реклама!
Хотите узнать как играть на гитаре? Гитаризм — лучший самоучитель гитары для начинающих!

Zox - Cant Look Down (табулатура)


-------------------------------------------------------------------------------
                             CAN'T LOOK DOWN- ZOX
-------------------------------------------------------------------------------
Tabbed by: Gus Pablo
Email: el_gus@verizon.net

INTRO
e|-----------------------|
B|--7--------------------|
G|------9---6-----6-9----|  x3
D|--------------9--------|
A|-----------------------|
E|-----------------------|

e|-----------------------|
B|--7--------------------|
G|------9---6-----6------|
D|--------------9---7----|
A|-----------------------|
E|-----------------------|


VIOLIN LEAD
e|------------------999---77777h9p7----|
B|-----------7777777---777---------107-|
G|--999--------------------------------|
D|-----777999--------------------------|
A|-------------------------------------|
E|-------------------------------------|

e|------------------999---1717171717171717-|
B|-----------7777777---777-----------------|
G|--999------------------------------------|
D|-----777999------------------------------|
A|-----------------------------------------|
E|-----------------------------------------|

Any 1's in the above passage refer to a number in it's teens, not the first fret. In 
you couldn't figure it out and all.


VERSE
e|---------------------------------|
B|---------------------------------|
G|------------------666---44444444-|
D|-----------4444444---444---------|
A|--777----------------------------|
E|-----555777----------------------|

e|---------------------------------|
B|---------------------------------|
G|------------------666------------|
D|-----------4444444---44477777777-|
A|--777----------------------------|
E|-----555777----------------------|


CHORUS PT.1 (I'll be waiting...)
A Bm F#m D

CHORUS PT.2 (I don't know where...)
E D


I refuse to tab the rest of the violin parts. Spencer Swain is a magician, and to give 
the rest so easily would ruin the whole trick. Enjoy what you get, right? And give it 
to society. And everything.

Good luck with it.
Автор: muzzon