Gitarizm

Гитаризм

Конкурс на лучший кавер
Здесь могла бы быть Ваша реклама!
Хотите узнать как играть на гитаре? Гитаризм — лучший самоучитель гитары для начинающих!

Zox - Canon (табулатура)


-------------------------------------------------------------------------------
                             CANON - Zox
-------------------------------------------------------------------------------
Artist: Zox
Album: Take Me Home
Song: Canon

Tab by Amy Hurwitz
Email: AmyMHz@gmail.com

Tuning: Standard Tuning for 4-Stringed Violin (G, D, A, E)
Key: D major--play all F# and C#


Intro [Pizzacato]:
E|-------------------------------------------------1-3--1-3-4-3-1-0-----2-1--|
A|----------0--3-2-3--2-1-0-1-2-0-1-2-3-2-1-2-3-2-3-----------------3-2------|
D|-0--2-3--------------------------------------------------------------------|
G|---------------------------------------------------------------------------|

E|-0-------------------------------------------------------------------------|
A|---3-2-----0---3-2-1-0-------------------3---3--2-1-0-1-2-0-1-2-3-3--2-3-3-|
D|-------2-3---2---------3-2-1-0-----1-2-0---0-------------------------------|
G|-------------------------------3-1-----------------------------------------|

E|-1-3--4-3-1-3--2-1-0-----2-1-0-1-0-----------------------------------------|
A|------3--------------3-2-----------3-2-----0---3-2-1-0---------------------|
D|------0--------------------------------2-3---2---------3-2-1-0-------------|
G|---------------------------------------------------------------3--1--------|

[Drum Roll and End Pizz Section.]

Arco:
E|---1-2-3--1-2-3---------0-1-2-1---0-1--------------------------------------|
A|-3--------------0-1-2-3---------3---------0-1-0---0--3-2-3--1--3-2-1-------|
D|--------------------------------------2-3-------3--------------------------|
G|---------------------------------------------------------------------------|

E|-----------------------2-1-0------------------------1---1--0---------------|
A|-3-2-1-0--3-2-1-0--321-------3-2-1-0--------------3---3------3-2-3-0-2-3-4-|
D|-------------------------------------3-2--1--2--0--------------------------|
G|---------------------------------------------------------------------------|

E|---------------1-3--4-3-1--3--2-1-0-----2-1-0-1-0--------------------------|
A|-3-2-1-2-3-2-3----------------------3-2-----------3-2---------3-2-1-0------|
D|------------------------------------------------------2-3-4-2---------2-3-4|
G|---------------------------------------------------------------------------|

E|----------------------|
A|---3-2-1-0------------|
D|-2---------3-2-1-0-1--|
G|----------------------| [Listen for four beats, then go into:]

Quick Arco Section:
E|---1-2-3--1-2-3---------0-1-2-1---0-1--------------------------------------|
A|-3--------------0-1-2-3---------3----------0-1-0---0--3-2-3-1--3-2-1--0----|
D|---------------------------------------2-3-------3-------------------------|
G|---------------------------------------------------------------------------|

E|--------------------------------------0-1-2-3-4-5-|
A|-----------0-1-2-3--1--3-2-3--2-1-2-3-------------|
D|-3-4-3-2-3----------------------------------------|
G|--------------------------------------------------|

[Time= 1:15min; Note: Play continuously through this transition--no pauses]

Shift to 3rd position (fingerings based in 3rd position):
E|-4--1-----4--3-2-1-2-3-1-2-3-4------------------------|
A|-------3-----------------------3--3--2--3--4--3--2--1-|
D|------------------------------------------------------|
G|------------------------------------------------------| 

Shift back to 1st position (fingerings based in 1st position):
E|------------2-1-0---------------------------------------------0-1-2-1-0----|
A|-3--2-1-2-3-------3-2-1-0-----------------------------0-1-2-3-----------3--|
D|--------------------------3-2-[some-crazy-fast-trills]---------------------|
G|---------------------------------------------------------------------------|

E|-0-1---------------------------------------2-1-0----------------1-2-1-0----|
A|---------0-1-0---0--3-2-3--1-2-3-2-3-4-3-0--------3-2-------------------3--|
D|-----2-3-------3-----------------------------------------------------------|
G|---------------------------------------------------------------------------|

E|-1-2-1-0-----1-2-1-0-----1-2-1-0----2-1-0-2-1-0-2-1-0-2-1-0-3-4-3-2-1-0----|
A|---------3-----------3-----------3--------------------------------------3-2|
D|---------------------------------------------------------------------------|
G|---------------------------------------------------------------------------|

E|---------------------------------------------------------------------------|
A|-3---2---1---0--------------0---3---2---1---0------------------------------|
D|----------------3---2---3-----------------------3---2---3---1--------------|
G|---------------------------------------------------------------------------|


Violin Solo:
E|---------------------------------------------------------------------------|
A|-3---2---1------------------------------0---3---2---1---0---1---0---1---2--|
D|-------------2---3-2-1-3-2--0---3-2-1-3------------------------------------|
G|---------------------------------------------------------------------------|

[Play first 8 notes on off-beat of time:]
E|-----------1--2--1--2--3-------0-1---------0-1---------0-1--------0-1-2-1--|
A|--3--2--3------------------0-3-----3---0-3-----3---0-3-----3--0-3---------3|
D|---------------------------------------------------------------------------|
G|---------------------------------------------------------------------------|

E|------0-1-2-1---------0-1-2-1---3-4-3-2-1-0--------------------------------|
A|--0-3---------3---0-3---------3-------------3-2-3---2---1---0--------------|
D|----------------------------------------------------------------3---2---3--|
G|---------------------------------------------------------------------------|

E|------------------------------------------------1---2-1-0-2-1---2-1-0-2-3--|
A|-0---3---2--1-------------------0---3---2---3-----------------3------------|
D|----------------2---3---2---3----------------------------------------------|
G|---------------------------------------------------------------------------|

E|-------------------------------------------------------1-3-1-3-4-2-1-0-2-1-|
A|-3---2---1---0---------------0---3---3---2-1-0-2-3-2-3---------------------|
D|-----------------3---2---3-------------------------------------------------|
G|---------------------------------------------------------------------------|

[double digits indicate playing note twice, as in a grace note]
E|-0-----------------------------1---3---22-33-44-22-33-44-33----1-2-3--1-2-3|
A|---3-2-1-0-------0-3-2--3---2--------------------------------3-------------|
D|-----------3-2-1-----------------------------------------------------------|
G|---------------------------------------------------------------------------|

E|---------0-1-2-1-0---0-1----------------------2-1-0---------3-4-3-2-1-0----|
A|-0-1-2-3-----------3---------0-1--3-2-3-4-3-0-------3-2-1-0-------------3-2|
D|-------------------------2-3-----------------------------------------------|
G|---------------------------------------------------------------------------|

[A few more crazy trills here leading into:]
E|---------0-1-2-1-0---0-1---------------------------------------2-1-2-1-3-4-|
A|-0-1-2-3-----------3----------0-1-0---0--3-2-3-1-2-3-2-3-4-3-0-------------|
D|--------------------------2-3-------3--------------------------------------|
G|---------------------------------------------------------------------------|

[Shift up to 3rd position to play 
Автор: muzzon