Gitarizm

» Тексты и аккорды к песням для гитары » Zox - Anything But Fine (табулатура)

Гитаризм

Конкурс на лучший кавер
Здесь могла бы быть Ваша реклама!
Хотите узнать как играть на гитаре? Гитаризм — лучший самоучитель гитары для начинающих!

Zox - Anything But Fine (табулатура)


this is the violin intro part of "anything but fine" for the guitar. i think its 
free to fix it.

e|-----13-15-17-13-12--------------------------------------------------------|
B|--13-----------------15-13-13-13------15-13--------------------------------|
G|----------------------------------14--------14-12-14-12-14-12--------------|
D|---------------------------------------------------------------15----------|
A|---------------------------------------------------------------------------|
E|---------------------------------------------------------------------------|


e|----- 13-15-17-13-12-------------------------------------------------------|
B|-15-13-----------------15-13-13-13------15-13------------------------------|
G|----------------------------------14--------14-12-14-----------------------|
D|------------------------------------------------------15-------------------|
A|---------------------------------------------------------------------------|
E|---------------------------------------------------------------------------|
Автор: muzzon